E.M.I.L. - 1000 de dorinte

  • (4 voturi)
  • Contribuție:  anonime
Intro (Bas):
E|-------------------------------------------------------------------------
B|-------------------------------------------------------------------------
G|-------------------------------------------------------------------------
D|-----5--------2-h3-p2------5--------3------------------------------------
A|-3-3-------------------3-3-----------------------------------------------
E|-------0-h1-0----------------0-h1-0--------------------------------------

E|-------------------------------------------------------------------------
B|-------------------------------------------------------------------------
G|-------------------------------------------------------------------------
D|-----5--------2-h3-p2------5--------3------------------------------------
A|-3-3-------------------3-3-----------------------------------------------
E|-------0-h1-0----------------0-h1-0--------------------------------------



00:32 ... Raga Muffin ...

Vers:
E|-------------------------------------------------------------------------
B|------5----------6-------------------------------------------------------
G|-4-h5---5---5-h7---7-----------------------------------------------------
D|-------------------------------------------------------------------------
A|-------------------------------------------------------------------------
E|-------------------------------------------------------------------------

E|-------------------------------------------------------------------------
B|------5----------6-------------------------------------------------------
G|-4-h5---5---5-h7---7-----------------------------------------------------
D|-------------------------------------------------------------------------
A|-------------------------------------------------------------------------
E|-------------------------------------------------------------------------

E|-------------------------------------------------------------------------
B|------5----------6-------------------------------------------------------
G|-4-h5---5---5-h7---7-----------------------------------------------------
D|-------------------------------------------------------------------------
A|-------------------------------------------------------------------------
E|-------------------------------------------------------------------------

E|-------------------------------------------------------------------------
B|------5----------6-------------------------------------------------------
G|-4-h5---5---5-h7---7-Lasat Sa Sune---------------------------------------
D|-------------------------------------------------------------------------
A|-------------------------------------------------------------------------
E|-------------------------------------------------------------------------

(chestia asta se tot repeta pe versuri)



1:02

Refren:
E|-------------------------------------------------------------------------
B|-------------------------------------------------------------------------
G|-5-------5-------5-------5-----------------------------------------------
D|-5---3---5---3---5---3---5---3-------------------------------------------
A|-3---3---3---3---3---3---3---3-------------------------------------------
E|-----1-------1-------1-------1-------------------------------------------
                              (PM)   =   palm mute (de 8 ori, rapid)

E|-------------------------------------------------------------------------
B|-------------------------------------------------------------------------
G|-5-------5-------5-------5-----------------------------------------------
D|-5---3---5---3---5---3---5---3-------------------------------------------
A|-3---3---3---3---3---3---3---3-------------------------------------------
E|-----1-------1-------1-------1-------------------------------------------



Vers
Refren



2:05

Chestie :P   (se repeta de 3 ori)
E|-------------------------------------------------------------------------
B|-------------------------------------------------------------------------
G|-5-5-5---5-10-9---5-5-5---5-10-9-----------------------------------------
D|-5-5-5---5-10-9---5-5-5---5-10-9-----------------------------------------
A|-3-3-3---3-8--7---3-3-3---3-8--7-----------------------------------------
E|-------------------------------------------------------------------------

E|-------------------------------------------------------------------------
B|-------------------------------------------------------------------------
G|-5-5-5---5-10-9---5-5-5--------------------------------------------------
D|-5-5-5---5-10-9---5-5-5--------------------------------------------------
A|-3-3-3---3-8--7---3-3-3--------------------------------------------------
E|-------------------------------------------------------------------------



Refren



2:44

Chestie Reloaded :P (se repeta de 4 ori)
E|-0-0--3-3--5-5--5-7------------------------------------------------------
B|-1-1--3-3--5-5--6-8------------------------------------------------------
G|-------------------------------------------------------------------------
D|-------------------------------------------------------------------------
A|-------------------------------------------------------------------------
E|-------------------------------------------------------------------------



Vers

Refren


In principiu, melodia suna acceptabil. Pe vers mai e si o a doua ghitara, 
da' la pretu' asta, ce vreti si voi? :P
6Ld5REUUAAAAAA1PBEDya2BDGnf5rYKeKnmYm4Cz
af98c8a7d7110b1f7ba1cede8ef268e8