E.M.I.L. - Cei care zambeste

Acorduri folostite:

      G      C      Em      D
e|----3------3------3-------2-------|
B|----3------3------3-------3-------|
G|----0------0------0-------2-------|
D|----0------2------2-------0-------|
A|----2------3------2---------------|
E|----3------0------0---------------|

INTRO+VERS

         G                    C                Em                  D              
e|----------3--------|---------3--------|---------3--------|-----------3p--2-----|
B|-------------3-----|------------3-----|------------3-----|------------------3--|
G|-------0--------0--|------0--------0--|------0--------0--|-------2-------------|
D|-------------------|------------------|------------------|----0----------------|
A|-------------------|---3--------------|------------------|---------------------|
E|----3--------------|------------------|---0--------------|---------------------|

G   C      Em     D   
E o zi frumoasa afara, 
G       C     Em         D  
Simt ca-nnebunesc,cadura ma doboara. 
G   C       Em         D
Salcamul umbrit adaposteste 
G     C    Em  D      G   C  Em
Niste hipioti care zambeste. 
Em   G    C   Em   D  
Care zambeste
 

ACORDURI PE REFREN:

      G5     C5      E5      D5  
e|--------------------------------|
B|--------------------------------|
G|-----------5---------------7----|
D|----5------5-------2-------7----|
A|----5------3-------2-------5----|
E|----3--------------0------------|

    G5  C5  E5         D5       G5
Ref:Afara-i clar,totul e minunat, 
       C5     E5          D5    G5   
    Ma uit la ei,zambeste sub copac (2x) 

Printre ei este si o ea, 
Cu rochita lunga si flori in par 
De o muzica divina, 
Ca si ei pluteste in vazduh usor! 

Ref:Afara-i clar,totul e minunat, 
    Ma uit la ei, zambeste sub copac (6x)
6Ld5REUUAAAAAA1PBEDya2BDGnf5rYKeKnmYm4Cz
7d927943c72b1927b9fa21c34d51b1b9