E.M.I.L. - Copacii Infloriti (bass)

  • (1 voturi)
  • Contribuție:  mr.cassy
E.M.I.L. - Copacii Infloriti – Bass Tab

Intro:
G-----------------------                                      
D-----------------------
A—5-------------------         x3   iar apoi o singura data :          
E------3—5---3-3-3--                                  

G-----------------------                                      
D-----------------------
A----5-5-----------------           
E----------3-3--5-5--3-3-3--


Si apoi rifful care m-a facut sa ma indragostesc de piesa.

G   ------------------------0-0--4-4--2-0-----------
D   0-0--4-4--2-0-------------------------4—2----  
A   -----------------4--2-----------------------------
E   ---------------------------------------------------

Tine si pe vers pana la:

Eu stiu c’as vrea sa vad mereu / doar oameni fericiti…bla bla

G-------------------------------------                                      
D------------------------------------
A—5-5-5-5-------------------------                  
E--------------3-3-3-3-----5-5-5-5           ma rog lungiti si voi dupa vers

Refren:

Da , da , da , da , Copacii infloriti

A----5-5--------------------------           
E----------3-3—5-5-5--3-3-3--                  x 4

Outro:

G----------------------------------------------------------
D-----0-0---4—5--7-----------------------------------------
A------------------------0-0---4--5--7----------2--3--5----
E------------------------------------------- 0-3-----------


That’s all, hope you like it… EMIL RULZZ!
6Ld5REUUAAAAAA1PBEDya2BDGnf5rYKeKnmYm4Cz
5479111ead5d65a40dc1d25a902a6173