E.M.I.L. - Da-i Drumul

INTRO
     
e|--------------------------------|--------------------|
B|--------------------------------|--------------------|
G|--------------------4-----------|-----5-4----4-------|
D|---555---5--7-----7---7--5--7--5|--7-------5---7-----|
A|-------5-------5----------------|--------------------|
E|--------------------------------|--------------------|

PE PRIMUL VERS: Da-i drumul....!!!

CHITARA I

     G5     E5     C5     D5
e|------------------------------|
B|------------------------------|
G|----------9------5-------7----|
D|---5------9------5-------7----|
A|---5------7------3-------5----|
E|---3--------------------------|


CHITARA II

e|---------------|---------------|-------------|--------|
B|---------------|---------------|-------------|--------|
G|----4----------|----4----------|----4--------|--4-----|
D|--55-55--7--5--|--55-55--7--5--|--55-55--7--5|-----77-|
A|---------------|---------------|-------------|--------|
E|---------------|---------------|-------------|--------|



G5          E5         C5       D5
Cat mi-as dori sa dau timpul inapoi,
      G5                E5
Ce sa fac daca`am fost prost,
       C5                D5
Nu mai pot schimba ce a fost!

    
    
    E5                 C5
Ref:Enervat si plin de stres,
              D5          G5  
    Proasta femeie mi-am ales (2x) 


G5                      E5
Ne-am despartit cand ai vorbit
          C5          D5
Si amicii mei te-au auzit.
         G5                    E5
Si ti-am spus sa nu mai Vii cu mine,
         C5                 D5
Cand vorbesti ma umpli de rusine!



E5                 C5
Ref:Enervat si plin de stres,
              D5          G5  
    Proasta femeie mi-am ales 



 SOLO

e|--------------------------------------------|------------------------------------|
B|--------------------------------------------|------------------------------------|
G|--------4-5-7-5-4-5-4----------------4---4--|--------4-5-7-5-4-5-4-----5-8-5-6-5-|
D|--5h--7---------------7-5---7--5--7----7---7|-5h--7----------------7-5-----------|
A|--------------------------------------------|------------------------------------|
E|--------------------------------------------|------------------------------------|




    E5                 C5
Ref:Enervat si plin de stres,
              D5          G5  
    Proasta femeie mi-am ales
  • raresh
    11 septembrie 2015 12:39
    e foarte bun tab-ul cu exceptia ultimei parti din solo :D
  • sammy81
    12 iulie 2009 12:44
    Foarte bun tab-ul,eu ti-am acordat 4 stele.Se potrivesc foarte bine acordurile.
  • ghit razvan
    26 mai 2008 09:23
    Silviu, ms frumos pt sprijin...
  • Silviu
    26 mai 2008 06:03
    Aiurea, nu stiu cantecul, insa ai muncit ceva, asadar ti-am dat un cinci, pentru a balansa nota de unu. Cheers!
  • ghit razvan
    25 mai 2008 22:38
    iti dau mare dreptate vlad...dar problema e ca ii induce in eroare pe ceilalti...si e pacat , zic eu...nu spun k am facut un tab absolut perfect, dar nicidecum de o stea :-s
6Ld5REUUAAAAAA1PBEDya2BDGnf5rYKeKnmYm4Cz
6c4b52c995fc419a379f9d81dc574733