E.M.I.L. - Emil

  • (1 voturi)
  • Contribuție:  ghit razvan
  • Ultima actualizare: 25.04.2008
SINCER NU SUNT F SIGUR DACA ASA SE CHEAMA PIESA...DACA STIE CAREVA EXACT SA MA ANUNTE

INTRO chitara Bass care merge apoi si pe versuri

G|-----------------|-------------------|
D|---------44------|----4--------------|
A|-----4-7----7-4--|--5---5--77--5-----| x2
E|---5-------------|---------------7---|

Ritm de ska 

      A       E
e|----5-------7-------|
B|----5-------9-------|
G|----6-------9-------|
D|----7-------9-------|
A|----7-------7-------|
E|----5---------------|

A             E               A
Ti-am luat un buchet de trandafiri
       E                A
Si din el ti-am luat un fir
       E             A    E   
I l-am dat lu’ maica-ta
A                   E           A 
Pe drum, ti-am mai luat si un sapun
  E               A
O sticla de busuioaca,
            E            A     E
Pentru cea mai frumoasa fata


PE REFREN SE FOLOSESC POWER CHORDS:

     D5     E5    A5    F#5   
e|----------------------------|
B|----------------------------|
G|---7------9-----------------|
D|---7------9-----7------4----|
A|---5------7-----7------4----|
E|----------------5------2----|

IN ULTIMUL VERS DE PE REFREN ACORDURILE: A, F# SI E (CHIAR DE LA FINAL)
SE FAC BAREURI SI RITMUL REVINE LA SKA (ASCULTATI SI O SA VA IASA)

     
     D5          E5        
Ref: Turnand vinu-n pahare,
     A5              F#5
     Pari mult mai atragatoare
     D5             E5             A    F#    E
     Ca atunci cand noi ne-am cunoscut



A               E            A
Ciorbita si chiftelele sunt gata
     E           A 
Le gateste bine fata
       E           A
Si le soarbe ca si tata
  A           E          A 
O invit la un dans fara oprire
    E              A 
Din buric se misca bine
     E              A     E              
Ii declar pe veci iubire


     D5          E5        
Ref: Turnand vinu-n pahare,
     A5              F#5
     Pari mult mai atragatoare
     D5             E5             A    F#    E
     Ca atunci cand noi ne-am cunoscut


     D5           E5
     Ma intreb cu disperare 
     A5          F#5
     Vei ramane a mea oare
     D5       E5     A   F#  E
     Si peste 50 de ani


SPRE FINAL ESTE SI UN SCURT SOLO, URMAT DE REFREN:


e|------------------------|--------------------|
B|------------------------|--------------------|
G|------------6-7-6----6--|------6-7-6------6--|
D|---777---9--------99---7|--9---------99-----7|
A|------------------------|--------------------|
E|------------------------|--------------------|

e|----------------|-------------------------|
B|----------------|-------------------------|
G|-----6-7-6-----6|--9--7--6-7-6---6-7-6----|
D|--9---------99--|--------------9--------9-|
A|----------------|-------------------------|
E|----------------|-------------------------|
6Ld5REUUAAAAAA1PBEDya2BDGnf5rYKeKnmYm4Cz
53fa9f5a2a39c08789842ae7cbffba95