E.M.I.L. - Emo nr 1

  • (1 voturi)
  • Contribuție:  godjitura
  • Ultima actualizare: 03.10.2013
Intro 
Chitara 1
e--------------------------------------------
b--------------------------------------------
g------6-----7-----6-----7-----6-----7-----6-
d--7-7---7-7---7-7---7-7---9-9---9-9---9-9---
a--------------------------------------------
e--------------------------------------------

--------------------------------------------------|
--------------------------------------------------|
----7-----6-----7-----6-----7-----6-----7-----6---|
9-9---5-5---5-5---5-5---5-5---7-7---7-7---7-7---7-|
--------------------------------------------------|
--------------------------------------------------|

Chitara 2
e---5----------------------7------------------------3---
b---5----------------------7------------------------3---
g---6----------------------7------------------------4---
d---7----------------------9------------------------5---
a---7----------------------9------------------------5---
e---5----------------------7------------------------3---
    A                      Bm                       G





A   Bm    G           D
Oa--re s-a intamplat ce ne-am gandit
          A   Bm   G                  D
 Ca poate oda--ta o sa vina un timp cand vom zambi
 E             F#m    Bm         E(x799xx)
 Cand imi aduc aminte cum ne intrebam
 E                 F#m
 Acum sunt aproape sigur
 Bm          E(x799xx)
 Nu ne inselam




Refren:
 A                    E(022100)   
 O singura intrebare si poate un raspuns
 F#m          D(x577xx)
 Oare s-a intamplat ce ne-am propus
 A           E(022100)             F#m 
 O simpla melodie, un sentiment placut
              D     
 Este exact ce mi-am dorit de la-nceput




 A    Bm       G                D
 Acum simt ca nu e-nzadar si vreau sa va zic ca
   A    Bm G               D
 E bi--ne sa fiti cu noi, sa fim cu voi
 E(022100)      F#m      Bm        E(x799xx)
 Cand vad ce se intampla sunt fericit
 E                 F#m
 Acum sunt aproape sigur
 Bm          E
 Nu am gresit




Refren:
 A                   E(022100)   
 O singura intrebare si poate un raspuns
 F#m           D(x577xx)
 Oare s-a intamplat ce ne-am propus
 A           E(022100)              F#m 
 O simpla melodie, un sentiment placut
               D     
 Este exact ce mi-am dorit de la-nceput



A               E(022100))           F#m
 O singura intrebare si poate un raspuns
              D(x577xx)
 Oare s-a intamplat ce ne-am propus

ASCULTATI CU ATENTIE MELODIA!!
6Ld5REUUAAAAAA1PBEDya2BDGnf5rYKeKnmYm4Cz
9a7c023c4996955b5e49d42318a0a5bd