E.M.I.L. - Fara Regrete

Intro.Chitara 1 si 2 in paralel

Chitara 1
e--9----7--------9---------7-----|--9---------------7------
B--10---9--------10--------9-----|--10--------------9------
G--11---9--------11--------9-----|--11--------------9------
D--11---9--------11--------9-----|--11--------------9------
A--9----7--------9---------7-----|--9---------------7------
E--------------------------------|-------------------------
  F#m   E       F#m        E        F#m             E

Chitara 2

e--------------------------------|------7-h9-7-h9-------10-h12-10-h12-------|
B--------------------------------|------------------------------------------|
G----2------4------2--4--------4-|------------------------------------------|
D-------6--------4---------6-----|------------------------------------------|
A---------7------------------7---|------------------------------------------|
E--------------------------------|------------------------------------------|


 F#m                  E
 Satul de ce-am avut, pun lacat pe ce-a trecut
 F#m                  E                        
 Cheia o rup si plec, nu ma intreb si nu regret
 F#m                       E                            
 Vreau sa ma nasc din nou, vreau sa invat ce-nseamna nou
 F#m                    E
 Satul de-acelasi nume, vreau sa ma inec in lume…


 F#m(244222)
 Nu am regrete, am bere in fata
  E(022100)
  prea multe defecte si doar o viata
  F#m
  Ma Grabesc sa traiesc..
  E
  Ma Grabesc sa traiesc


 F#(244)          E(0221)
 Soarele ma arde, timpul cade mut
  F#m                       E
  Satul de noapte si trecut…le las in spate


 F#m                      E
 S-a ridicat si a plecat, in urma ei nu a lasat
  F#m                   E                    
  Decat cearceaful gol, si urme de parfum in hol
  F#m               E
  In cuie in perete sta timpul orb si surd
  F#m                    E
  Priveste cat de-absurd sta si zambeste

  1:45
  e--------------------------------------------|
  B--------------------------------------------|
  G----2---2---2---2---2---1---1---1---1---1---|x2
  D------4---4---4---4---4---2---2---2---2---2-|
  A--------------------------------------------|
  E--------------------------------------------|


 2:36
  e--7--7---5--5---5--5---7--7----|
  B--7--7---7--7---5--5---9--9----|
  G--7--7---7--7---6--6---9--9----|
  D--9--9---7--7---7--7---9--9----|
  A--9--9---5--5---7--7---7--7----|
  E--7--7----------5--5-----------|
     Bm     D      A      E

 Bm                D
 Ce nu-nteleg este de ce n-ai inteles
  A                    E
  Ca viata pentru mine are un singur sens
  Bm                   D 
  Visez. Sa ma trezesc cu soarele in fata
  A               E                       Bm
  Lasa ce-a fost, sa ma inveti din nou in viata!
  D             A        E          Bm         D   
  Sunt nori si ziua mea are acum o dimineata
  A                 E
  Zambesc cu soarele in fata …
6Ld5REUUAAAAAA1PBEDya2BDGnf5rYKeKnmYm4Cz
6442dda88064a874d4e32ae9be0c0664