E.M.I.L. - Finlandeza

Intro
e-------------------
B-------------------
G-------------------
D-------2-----2----2
A---0-0---0-0--0-0--
E-------------------

dupa partea asta vin urmatoarele acorduri:
A F#m D E 

A
Vreau sa stii
F#m
Ca ma intreb
D 
Cat m-ar costa
E 
Sa inteleg fara sa cred
A 
Tot ce imi spui
F#m 
Nu este nou
D
De ce ma acuzi
E 
Ca nu sunt atent si nu-nteleg

A
Dar tot ce simt
F#m 
Este ca mint
D 
Nu iti raspund
E 
Nu te ascult
A 
Nu te resping
F#m 
Doar ma intrig
D 
Ca nu ma crezi
E 
Vrei sa-ti zambesc

A
Te-ai intrebat
F#m 
Cu-adevarat
D 
Cat e de greu
E 
Sa incerc mereu sa nu fiu distant
A 
Eu ti-am promis
F#m 
Dar m-am dezis
D 
Nu am gresit
E 
Am realizat acum ce simt
 
F#m
Dar tot ce vreau acum
     D
E sa fii iar la fel
A 
Dar simt ca nu poti
       E
Sau nu vreau sa iti cer
F#m 
O vorba aruncata
       D 
Intr-o zi mai demult
A 
E tot ce ma leaga
   E 
Nu vreau sa te uit

A
Te rog sa pleci
F#m 
Nu vreau sa stai
D 
Chiar nu intelegi
E 
S-a terminat

F#m
Ce pot sa spun
D 
Sau ce sa fac
A 
E tot o minciuna
E 
Mai bine sa tac
F#m 
Sa ma opresc
D 
Si sa gandesc
A                      E
E timpul sa stau si sa ma relaxez

A
Dar m-amagesc
F#m 
Lacom gandesc
D 
Nu pot decat
E 
Sa ma stresez

Solo

e--------------------------------------------------------------------
B------------------------------------------------------10-9-10-9-----
G-----6-7-6-9-9-7-7-6-----6-7-6-9-9-7-7-6-----2-4-s6-4---------------
D--7-7----------------7-7------------------s4------------------------
A--------------------------------------------------------------------
E--------------------------------------------------------------------

e----------7-5-4----------------------------12---------12------12----
B---5-7----------7-5-------------------9h10----10-9-10----9-10----10-
G-6-----4------------6------------9h11-------------------------------
D------------------------6h7-9h11------------------------------------
A--------------------------------------------------------------------
E--------------------------------------------------------------------







h=hammer on
s-slide
6Ld5REUUAAAAAA1PBEDya2BDGnf5rYKeKnmYm4Cz
7ad3a16b23a0466b5a0aaba29de1ce89