E.M.I.L. - Raman la fel

Legend
L - tied note
x - dead note
h - hammer on/pull off
b - bend
s - slide
~ - vibrato
g - ghost note
> - accentuated note
t - trill
M - palm mute
. - staccato
P - popping (bass)
S - slapping (bass)
+ - tapping
W - wide vibrato
< - fade in
w - whammy bar
= - tremolo picking
v - brush up
^ - brush down
V - pick stroke up
n - pick stroke down

=============================================================================
Steel Guitar
=============================================================================

E |----------------------------|----------------------------|
B |----------------------------|----------------------------|
G |----------------------------|----------------------------|
D |--------3-----------3-------|--------3-----------3-------|
A |--0--0--------0--0----------|--1--1--------1--1----------|
E |----------------------------|----------------------------|


----------------------------|----------------------------|
----------------------------|----------------------------|
----------------------------|----------------------------|
--3-----3-----3--3--3--3L---|--3--3-----3-----3----------|
--3-----3-----3--3--3--3L---|--3--3-----3-----3----------|
--1-----1-----1--1--1--1L---|--1--1-----1-----1----------|


----------------------------|----------------------------|
----------------------------|----------------------------|
----------------------------|----------------------------|
--------3-----------3-------|--------3-----------3-------|
--0--0--------0--0----------|--1--1--------1--1----------|
----------------------------|----------------------------|


----------------------------|----------------------------|
----------------------------|----------------------------|
----------------------------|----------------------------|
--3-----3-----3--3--3--3L---|--3--3-----3-----3----------|
--3-----3-----3--3--3--3L---|--3--3-----3-----3----------|
--1-----1-----1--1--1--1L---|--1--1-----1-----1----------|


----------------------------|----------------------------|
----------------------------|----------------------------|
----------------------------|----------------------------|
----------------------------|-----------8-----8--8--8----|
--5-----5--------7-----8L---|--8-------------------------|
----------------------------|----------------------------|


----------------------------|----------------------------|
----------------------------|----------------------------|
----------------------------|-----------5----------------|
--7-----7--------7-----5L---|--5-----------------5-------|
----------------------------|----------------------------|
----------------------------|----------------------------|


----------------------------|----------------------------|
----------------------------|----------------------------|
----------------------------|----------------------------|
----------------------------|-----------8-----8--8--8----|
--5-----5--------7-----8L---|--8-------------------------|
----------------------------|----------------------------|


----------------------------|----------------------------|
----------------------------|----------------------------|
----------------------------|-----------5----------------|
--7-----7--------7-----5L---|--5-----------------5-------|
----------------------------|----------------------------|
----------------------------|----------------------------|


----------------------------|----------------------------|
----------------------------|----------------------------|
----------------------------|--------------2M-2M-2M-2M---|
--0M-0M-0M-0M-2M-2M-2M-2M---|--3M-3M-3M-3M---------------|
----------------------------|----------------------------|
----------------------------|----------------------------|


----------------------------|----------------------------|
----------------------------|----------------------------|
--5M-5M-5M-5M-3M-3M-3M-3M---|--2M-2M-2M-2M-0M-0M-0M-0M---|
----------------------------|----------------------------|
----------------------------|----------------------------|
----------------------------|----------------------------|


----------------------------|----------------------------|
----------------------------|----------------------------|
----------------------------|--------------2M-2M-2M-2M---|
--0M-0M-0M-0M-2M-2M-2M-2M---|--3M-3M-3M-3M---------------|
----------------------------|----------------------------|
----------------------------|----------------------------|


----------------------------|----------------------------|
----------------------------|----------------------------|
--5M-5M-5M-5M-3M-3M-3M-3M---|--2M-2M-2M-2M-0M-0M-0M-0M---|
----------------------------|----------------------------|
----------------------------|----------------------------|
----------------------------|----------------------------|


----------------------------|----------------------------|
----------------------------|----------------------------|
----------------------------|----------------------------|
--5--------5--5--------5----|--5--------5--5--------5----|
--5--------5--5--------5----|--5--------5--5--------5----|
--3--------3--3--------3----|--3--------3--3--------3----|


----------------------------|----------------------------|
----------------------------|----------------------------|
----------------------------|--2h-3--3--3--3h-5--5--5----|
--8--------8--8--------8----|----------------------------|
--8--------8--8--------8----|----------------------------|
--6--------6--6--------6----|----------------------------|


----------------------------|----------------------------|
----------------------------|----------------------------|
----------------------------|--7--7--7-----7L-------7----|
--3--------3--3--------3----|--7--7--7-----7L-------7----|
--3--------3--3--------3----|--5--5--5-----5L-------5----|
--1--------1--1--------1----|----------------------------|


----------------------------|----------------------------|
----------------------------|----------------------------|
----------------------------|----------------------------|
--5--------5--5--------5----|--8--8--8-----8L-------8----|
--5--------5--5--------5----|--8--8--8-----8L-------8----|
--3--------3--3--------3----|--6--6--6-----6L-------6----|


----------------------------|----------------------------|
----------------------------|----------------------------|
----------------------------|--7--7--7-----7L-------7----|
--3--------3--3--------3----|--7--7--7-----7L-------7----|
--3--------3--3--------3----|--5--5--5-----5L-------5----|
--1--------1--1--------1----|----------------------------|


----------------------------|----------------------------|
----------------------------|----------------------------|
----------------------------|----------------------------|
--5--------5--5--------5----|--8--8--8-----8L-------8----|
--5--------5--5--------5----|--8--8--8-----8L-------8----|
--3--------3--3--------3----|--6--6--6-----6L-------6----|


----------------------------|----------------------------|
----------------------------|----------------------------|
----------------------------|----------------------------|
--------3-----------3-------|--------3-----------3-------|
--0--0--------0--0----------|--1--1--------1--1----------|
----------------------------|----------------------------|


----------------------------|----------------------------|
----------------------------|----------------------------|
----------------------------|----------------------------|
--3M-3M-3M-3M-3M-3M-3M-3M---|--3M-3M-3M-3M-3M-3M-3M-3M---|
--3M-3M-3M-3M-3M-3M-3M-3M---|--3M-3M-3M-3M-3M-3M-3M-3M---|
--1M-1M-1M-1M-1M-1M-1M-1M---|--1M-1M-1M-1M-1M-1M-1M-1M---|


----------------------------|----------------------------|
----------------------------|----------------------------|
----------------------------|----------------------------|
--------3-----------3-------|--------3-----------3-------|
--0--0--------0--0----------|--1--1--------1--1----------|
----------------------------|----------------------------|


----------------------------|----------------------------|
----------------------------|----------------------------|
----------------------------|----------------------------|
--3M-3M-3M-3M-3M-3M-3M-3M---|--3M-3M-3M-3M-3M-3M-3M-3M---|
--3M-3M-3M-3M-3M-3M-3M-3M---|--3M-3M-3M-3M-3M-3M-3M-3M---|
--1M-1M-1M-1M-1M-1M-1M-1M---|--1M-1M-1M-1M-1M-1M-1M-1M---|


----------------------------|----------------------------|
----------------------------|----------------------------|
----------------------------|----------------------------|
----------------------------|-----------8-----8--8--8----|
--5-----5--------7-----8L---|--8-------------------------|
----------------------------|----------------------------|


----------------------------|----------------------------|
----------------------------|----------------------------|
----------------------------|-----------5----------------|
--7-----7--------7-----5L---|--5-----------------5-------|
----------------------------|----------------------------|
----------------------------|----------------------------|


----------------------------|----------------------------|
----------------------------|----------------------------|
----------------------------|----------------------------|
----------------------------|-----------8-----8--8--8----|
--5-----5--------7-----8L---|--8-------------------------|
----------------------------|----------------------------|


----------------------------|----------------------------|
----------------------------|----------------------------|
----------------------------|-----------5----------------|
--7-----7--------7-----5L---|--5-----------------5-------|
----------------------------|----------------------------|
----------------------------|----------------------------|


----------------------------|----------------------------|
----------------------------|----------------------------|
----------------------------|--------------2M-2M-2M-2M---|
--0M-0M-0M-0M-2M-2M-2M-2M---|--3M-3M-3M-3M---------------|
----------------------------|----------------------------|
----------------------------|----------------------------|


----------------------------|----------------------------|
----------------------------|----------------------------|
--5M-5M-5M-5M-3M-3M-3M-3M---|--2M-2M-2M-2M-0M-0M-0M-0M---|
----------------------------|----------------------------|
----------------------------|----------------------------|
----------------------------|----------------------------|


----------------------------|----------------------------|
----------------------------|----------------------------|
----------------------------|--------------2M-2M-2M-2M---|
--0M-0M-0M-0M-2M-2M-2M-2M---|--3M-3M-3M-3M---------------|
----------------------------|----------------------------|
----------------------------|----------------------------|


----------------------------|----------------------------|
----------------------------|----------------------------|
--5M-5M-5M-5M-3M-3M-3M-3M---|--2M-2M-2M-2M-0M-0M-0M-0M---|
----------------------------|----------------------------|
----------------------------|----------------------------|
----------------------------|----------------------------|


----------------------------|----------------------------|
----------------------------|----------------------------|
----------------------------|----------------------------|
--5--------5--5--------5----|--5--------5--5--------5----|
--5--------5--5--------5----|--5--------5--5--------5----|
--3--------3--3--------3----|--3--------3--3--------3----|


----------------------------|----------------------------|
----------------------------|----------------------------|
----------------------------|--2h-3--3--3--3h-5--5--5----|
--8--------8--8--------8----|----------------------------|
--8--------8--8--------8----|----------------------------|
--6--------6--6--------6----|----------------------------|


----------------------------|----------------------------|
----------------------------|----------------------------|
----------------------------|--7--7--7-----7L-------7----|
--3--------3--3--------3----|--7--7--7-----7L-------7----|
--3--------3--3--------3----|--5--5--5-----5L-------5----|
--1--------1--1--------1----|----------------------------|


----------------------------|----------------------------|
----------------------------|----------------------------|
----------------------------|----------------------------|
--5--------5--5--------5----|--8--8--8-----8L-------8----|
--5--------5--5--------5----|--8--8--8-----8L-------8----|
--3--------3--3--------3----|--6--6--6-----6L-------6----|


----------------------------|----------------------------|
----------------------------|----------------------------|
----------------------------|--7--7--7-----7L-------7----|
--3--------3--3--------3----|--7--7--7-----7L-------7----|
--3--------3--3--------3----|--5--5--5-----5L-------5----|
--1--------1--1--------1----|----------------------------|


----------------------------|----------------------------|-------|
----------------------------|----------------------------|-------|
----------------------------|----------------------------|-------|
--5--------5--5--------5----|--8--8--8-----8L-------8L---|--8----|
--5--------5--5--------5----|--8--8--8-----8L-------8L---|--8----|
--3--------3--3--------3----|--6--6--6-----6L-------6L---|--6----|


----------------------------|----------------------------|
----------------------------|----------------------------|
----------------------------|--------------5-----3-------|
-----5--------5--------3L---|--3-----3-----5-----3-------|
-----5--------5--------3L---|--3-----3-----3-----1-------|
--0--3-----0--3-----0--1L---|--1--0--1--0----------------|


----------------------------|----------------------------|
----------------------------|----------------------------|
----------------------------|--------------5-----3-------|
-----5--------5--------3L---|--3-----3-----5-----3-------|
-----5--------5--------3L---|--3-----3-----3-----1-------|
--0--3-----0--3-----0--1L---|--1--0--1--0----------------|


----------------------------|----------------------------|
----------------------------|----------------------------|
----------------------------|--------------5-----3-------|
-----5--------5--------3L---|--3-----3-----5-----3-------|
-----5--------5--------3L---|--3-----3-----3-----1-------|
--0--3-----0--3-----0--1L---|--1--0--1--0----------------|


----------------------------|----------------------------|
----------------------------|----------------------------|
----------------------------|--------------5-----3-------|
-----5--------5--------3L---|--3-----3-----5-----3-------|
-----5--------5--------3L---|--3-----3-----3-----1-------|
--0--3-----0--3-----0--1L---|--1--0--1--0----------------|


----------------------------|----------------------------|
----------------------------|----------------------------|
----------------------------|--------------5-----3-------|
-----5--------5--------3L---|--3-----3-----5-----3-------|
-----5--------5--------3L---|--3-----3-----3-----1-------|
--0--3-----0--3-----0--1L---|--1--0--1--0----------------|


----------------------------|----------------------------|
----------------------------|----------------------------|
----------------------------|--------------5-----3-------|
-----5--------5--------3L---|--3-----3-----5-----3-------|
-----5--------5--------3L---|--3-----3-----3-----1-------|
--0--3-----0--3-----0--1L---|--1--0--1--0----------------|


----------------------------|----------------------------|
----------------------------|----------------------------|
----------------------------|--------------5-----3-------|
-----5--------5--------3L---|--3-----3-----5-----3-------|
-----5--------5--------3L---|--3-----3-----3-----1-------|
--0--3-----0--3-----0--1L---|--1--0--1--0----------------|


----------------------------|----------------------------|-------|
----------------------------|----------------------------|-------|
----------------------------|--------------3L------------|--3----|
-----5--------5--------3L---|--3-----3-----3L------------|--3----|
-----5--------5--------3L---|--3-----3-----1L------------|--1----|
--0--3-----0--3-----0--1L---|--1--0--1-------------------|-------|


--------5-----------5-------|--------5-----------5-------|
----------------------------|----------------------------|
--6--6--------6--6----------|--7--7--------7--7----------|
----------------------------|----------------------------|
----------------------------|----------------------------|
----------------------------|----------------------------|


-----------------------5L---|--5-------------------------|
--------9-------------------|-----5-----------5----------|
--------------9-----6-------|-----------6----------------|
--7-------------------------|----------------------------|
----------------------------|----------------------------|
----------------------------|----------------------------|


--------5-----------5-------|--------5-----------5-------|
----------------------------|----------------------------|
--6--6--------6--6----------|--7--7--------7--7----------|
----------------------------|----------------------------|
----------------------------|----------------------------|
----------------------------|----------------------------|


-----------------------5L---|--5-------------------------|
--------9-------------------|-----5-----------5----------|
--------------9-----6-------|-----------6----------------|
--7-------------------------|----------------------------|
----------------------------|----------------------------|
----------------------------|----------------------------|


--------5-----------5-------|--------5-----------5-------|
----------------------------|----------------------------|
--6--6--------6--6----------|--7--7--------7--7----------|
----------------------------|----------------------------|
----------------------------|----------------------------|
----------------------------|----------------------------|


-----------------------5L---|--5-------------------------|
--------9-------------------|-----5-----------5----------|
--------------9-----6-------|-----------6----------------|
--7-------------------------|----------------------------|
----------------------------|----------------------------|
----------------------------|----------------------------|


--------5-----------5-------|--------5-----------5-------|
----------------------------|----------------------------|
--6--6--------6--6----------|--7--7--------7--7----------|
----------------------------|----------------------------|
----------------------------|----------------------------|
----------------------------|----------------------------|


-----------------------5L---|--5-------------------------|----|----|----|----|
--------9-------------------|-----5-----------5----------|----|----|----|----|
--------------9-----6-------|-----------6----------------|----|----|----|----|
--7-------------------------|----------------------------|----|----|----|----|
----------------------------|----------------------------|----|----|----|----|
----------------------------|----------------------------|----|----|----|----|


----|----|----|-------|----|----|----|----------------------------|
----|----|----|-------|----|----|----|----------------------------|
----|----|----|-------|----|----|----|--4h-5--5--5--5h-7--7--7----|
----|----|----|--4----|----|----|----|----------------------------|
----|----|----|--4----|----|----|----|--2h-3--3--3--3h-5--5--5----|
----|----|----|--2----|----|----|----|----------------------------|


----------------------------|----------------------------|
----------------------------|----------------------------|
----------------------------|--9--9--9-----9L-------9----|
--5--------5--5--------5----|--9--9--9-----9L-------9----|
--5--------5--5--------5----|--7--7--7-----7L-------7----|
--3--------3--3--------3----|----------------------------|


----------------------------|----------------------------|
----------------------------|----------------------------|
----------------------------|----------------------------|
--7--------7--7--------7----|--10-10-10----10L------10---|
--7--------7--7--------7----|--10-10-10----10L------10---|
--5--------5--5--------5----|--8--8--8-----8L-------8----|


----------------------------|----------------------------|
----------------------------|----------------------------|
----------------------------|--9--9--9-----9L-------9----|
--5--------5--5--------5----|--9--9--9-----9L-------9----|
--5--------5--5--------5----|--7--7--7-----7L-------7----|
--3--------3--3--------3----|----------------------------|


----------------------------|----------------------------|
----------------------------|----------------------------|
----------------------------|----------------------------|
--7--------7--7--------7----|--10-10-10----10L------10---|
--7--------7--7--------7----|--10-10-10----10L------10---|
--5--------5--5--------5----|--8--8--8-----8L-------8----|


----------------------------|----------------------------|
----------------------------|----------------------------|
----------------------------|--9--9--9-----9L-------9----|
--5--------5--5--------5----|--9--9--9-----9L-------9----|
--5--------5--5--------5----|--7--7--7-----7L-------7----|
--3--------3--3--------3----|----------------------------|


----------------------------|----------------------------|
----------------------------|----------------------------|
----------------------------|----------------------------|
--7--------7--7--------7----|--10-10-10----10L------10---|
--7--------7--7--------7----|--10-10-10----10L------10---|
--5--------5--5--------5----|--8--8--8-----8L-------8----|


----------------------------|----------------------------|
----------------------------|----------------------------|
----------------------------|--9--9--9-----9L-------9----|
--5--------5--5--------5----|--9--9--9-----9L-------9----|
--5--------5--5--------5----|--7--7--7-----7L-------7----|
--3--------3--3--------3----|----------------------------|


----------------------------|----------------------------|-------|----|----||
----------------------------|----------------------------|-------|----|----||
----------------------------|----------------------------|-------|----|----||
--7--------7--7--------7----|--10-10-10----10L------10L--|--10---|----|----||
--7--------7--7--------7----|--10-10-10----10L------10L--|--10---|----|----||
--5--------5--5--------5----|--8--8--8-----8L-------8L---|--8----|----|----||
6Ld5REUUAAAAAA1PBEDya2BDGnf5rYKeKnmYm4Cz
08c7f2a0aa462750e1199e6bde341b78