E.M.I.L. - Ramas Bun

  • (2 voturi)
  • Contribuție:  ghit razvan
  • Ultima actualizare: 14.01.2010
Acorduri folosite:

      D#     A#     G#   Cm
e|----6------6-------4-----8----|
B|----8------6-------4-----8----|
G|----8------7-------5-----8----|
D|----8------8-------6-----10---|
A|----6------8-------6-----10---|
E|-----------6-------4-----8----|

INTRO

CHITARA I:
           3x                       1x
e|-----------------------|---------------------|
B|-----------------------|-1-1-1--3------------|
G|-0-0--1-1--3-33--111-0-|-----------333-33-33-|
D|-----------------------|---------------------|
A|-----------------------|---------------------|
E|-----------------------|---------------------|

D#             A#
Acelasi gand, acelasi drum
G#             A#
Aceiasi ochi, acelasi fum
D#    A#         G#     A#
In cu totul alta zi
D#             A#
Acelasi fel al meu de-a fi
G#                 A# 
Dar cum sunt eu tu ai uitat
D#        A#             G#        A#
Sau poate nu mai vrei sa stii



              D#5
REF:In tot ce fac eu nu m-am schimbat
           A#5
    Tot ce simt nu mai pot sa mint
           Cm5
    Tot ce cred nu am ce sa pierd
              G#5            A#5
    Tot ce-ti spun este ramas bun


Ai vrea sa crezi ca m-ai schimbat
Si ne-am certat, imi spun pacat
Tot ce sunt eu tu n-ai aflat
Maine va fi o noua zi
Imi vei zambi si-mi vei rosti
Ce se intampla cu tine

G#   A#       D#   Cm
Sunt plictisit si obosit
G#        A#        D#    Cm
Sa te mai caut prin mine
G#  A#    D#   Cm
Am adormit si m-am trezit
G#      A#      D#
Abia in zori de maine
  • alecz93
    21 martie 2013 13:14
    Perfect! Merci Razvan de tabulatura :)
6Ld5REUUAAAAAA1PBEDya2BDGnf5rYKeKnmYm4Cz
311d2f2216418f120b6bf8b794ddfeff