E.M.I.L. - Robby

  • (1 voturi)
  • Contribuție:  gabos22
  • Ultima actualizare: 27.12.2010
Astea sunt notele:

     G  D  A  C  e  E
e|---------------------|
B|---------------------|
G|------7-----5--9-----|
D|---5--7--7--5--9--2--|
A|---5--5--7--3--7--2--|
E|---3-----5--------0--|

Ascultati melodia cu atentie si n-o sa fie nici o problema.

INTRO:
e|---------------------------------------------------------------|
B|---------------------------------------------------------------|
G|---------------------------------------------------------------|
D|----5-4----5-4----7-5-4--7-5-4--5-4----5-4----9-7-5-7-5-4-5----|
A|--------5------5--------------------5------5-------------------|
E|---------------------------------------------------------------|


G             D        A        G
Sunt multe poveşti / Ce nu au sfarşit
G             D        A      Em
Normal îţi doreşti / Final fericit
 C             D      G        E   
Ea visează o lume / Greu de atins
C        D
Un paradis


 G           D                    C
Te pierzi undeva / Umbre în viaţa ta
     D
Sau doar trăiri
  G          D                C
Alegi ce alegi / Iubeşti neîncetat
            D        G
Sau poate pierzi



Trecutul zgâriat / Pe piele cu un ac
G              D         A       G
Traieşti o iluzie / Prezentul Confuzie
C               D     G         E
E un pariu pierdut / Timpul a trecut
C                   D
nu-l poţi întoarce înapoi
G            D                    C
Te pierzi undeva / Umbre în viaţa ta
        D
Sau doar trăiri
G          D               C
Alegi ce alegi / Iubeşti neîncetat
            D        E
Sau poate pierzi



Em G D C

Em              G            D               C             
Buzele arse de rom / Gânduri ce plutesc în gol
Em              G            D              C
Ochii ţintă pe tavan / Stele pe un cer murdar
Em              G            D              C
Vise risipite în fum / Zămbete, lacrimi acum
Em               G            D        C           D
Nopţi schimbate în dimineţi / Vanilia din alte vieţi



 G           D                    C
Te pierzi undeva / Umbre în viaţa ta
     D
Sau doar trăiri

A|---3-2-0-----|

  G          D                C
Alegi ce alegi / Iubeşti neîncetat
            D        
Sau poate pierzi

SOLO:

e|-----------------------------7-10-8-7-8-7--------------------------------|
B|--10^-----8-10-8---8~-----10--------------10---8-10--10^--10^--10--8-8---|
G|----------------9----------------------------9---------------------------|
D|-------------------------------------------------------------------------|
A|-------------------------------------------------------------------------|
E|-------------------------------------------------------------------------|

^ = bend
6Ld5REUUAAAAAA1PBEDya2BDGnf5rYKeKnmYm4Cz
f2107600acf7ef432f279ca9b05d601d