E.M.I.L. - Vara, vara

  • (8 voturi)
  • Contribuție:  ghit razvan
  • Ultima actualizare: 11.02.2010
INTRO:

Chitara I : 
(Acordurile astea (Bm, A, Em)sunt folosite si pe partea de vers)
                                
                     
     G5    F#5    E5     Bm     A     Em
e|-------------------|-----7-----5------7-----|
B|-------------------|-----7-----5------8-----|
G|-------------------|-----7-----6------9-----|
D|-----5-----4-----2-|-----9-----7------9-----|
A|-----5-----4-----2-|-----9-----7------7-----|
E|-----3-----2-----0-|-----7-----5------------|


Chitara II intra cu solo-ul pe undeva pe la Bm de la prima chitara. 

e|-----------|------------------------|--------------|
B|-----------|------------------------|--------------|
G|-----------|------------------------|-----999--7---|
D|--999--7--9|--99h11--121212-11--9--7|--7----------9|
A|-----------|------------------------|--------------|
E|-----------|------------------------|--------------|

e|---------------------|----------------------------|
B|---------------------|----------------------------|
G|--------------77-----|---------------11--9--7-----|
D|--9h11--12------11--9|--7--9--11--7------------9--|
A|---------------------|----------------------------|
E|---------------------|----------------------------|


Bm
Vara, vara, vara,
A
Cat te-am asteptat
Em
Cu berea rece-n fata
        Bm
Ce adevarat

Bm
La terasa-afara 
A
Nu pot sa ma opresc
Em
Soarele ma arde 
         Bm
Simt ca-nebunesc


BRIDGE CATRE REFREN: (trecerea de la A la G se face f repede)
 
     B5     A5     G5
e|------------------------|
B|------------------------|
G|------------------------|
D|----9-------7------5----|
A|----9-------7------5----|
E|----7-------5------3----|


     G5     D5          A5          B5            G5
Ref: Cate beri o sa mai beau si cat timp o sa mai stau
     G5      D5         A5
     Ca sa simt ca m-am racit
     G5     D5          A5             B5          G5 
     Nu mai pot, nu mai suport, nu mai vreau sa ma intorc
     G5      D5         A5
     Simt ca-aici m-am poticnit!


Bm
Seara, seara, seara,
A
Luna-aparut
Em
Mai comand o bere
               Bm
Si o iau de la-nceput

Bm
Cu acorduri la-ntamplare
A
Si-un jamaican blues
Em
Sa mai luam o tigare
             Bm 
Si o bere-n plus


BRIDGE:

     G5     D5          A5          B5            G5
Ref: Cate beri o sa mai beau si cat timp o sa mai stau
     G5      D5         A5
     Ca sa simt ca m-am racit
     G5     D5          A5             B5          G5 
     Nu mai pot, nu mai suport, nu mai vreau sa ma intorc
     G5      D5         A5
     Simt ca-aici m-am poticnit!

Bm
Racoarea diminetii
A
Ne-a cuprins pe toti,
Em
Vrei sa te ridici
                   Bm
Dar simti ca nu mai poti


BRIDGE:

     G5     D5          A5          B5            G5
Ref: Cate beri o sa mai beau si cat timp o sa mai stau
     G5      D5         A5
     Ca sa simt ca m-am racit
     G5     D5          A5             B5          G5 
     Nu mai pot, nu mai suport, nu mai vreau sa ma intorc
     G5      D5         A5
     Simt ca-aici m-am poticnit!
6Ld5REUUAAAAAA1PBEDya2BDGnf5rYKeKnmYm4Cz
6bdc5bdac4fc50e6f1a135ea1a9c01d6