E.M.I.L. - Vis in Soapta

INTRO

    F                      Am               Dm              Bb
e|--1-------------------|--0-------------|--1-------------|-1---------|
B|--1----10-11-13-11-10-|--1---3-5-6-5-3-|--3-------------|-3---------|
G|--2-------------------|--2-------------|--2---0-2-3-2-0-|-3---------|
D|--3-------------------|--2-------------|--0-------------|-3---------|
A|--3-------------------|--0-------------|----------------|-1---------|
E|--1-------------------|----------------|----------------|-----------|


Apoi se trece la ritm de ska:

Chitara I

    F            Am            Dm              Bb
e|--1------------5-------------5----------------6----------|
B|--1------------5-------------6----------------6----------|
G|--2------------5-------------7----------------7----------|
D|--3------------7-------------7----------------8----------|X2
A|--3------------7-------------5----------------8----------|
E|--1------------5------------------------------6----------|


Chitara II

e|-----------5------------|--5-3---3-5-3---3--6-5|--8888--66-55|--3333--5-6-5------|
B|---6L--6-8---8-6-5-5h6--|------6-------6-------|-------------|--------------6L---|
G|-----------------------7|----------------------|-------------|-------------------|
D|------------------------|----------------------|-------------|-------------------|X2
A|------------------------|----------------------|-------------|-------------------|
E|------------------------|----------------------|-------------|-------------------|


      F      Am           Dm                  Bb 
VERS: Nu mai poti schimba nimic din tot ce ai facut
           F        Am                     Dm                        Bb 
      Sunt ore,sunt nopti si sunt ani prin care ai trecut fara sa-ti amintesti
      F     Am               Dm             Bb
      Nimic,nimic important, poate un sarut fara timp
      F         Am               Dm                  Bb
      Un mic,un mic amanunt, dar te-ai saturat sa nu vezi nimic


       Dm          C 
BRIDGE: Ai vrea sa te opresti in timp
       F                Bb
        Si orele sa curga mai departe
       Dm         C
        Sa te privesti din trecut
       F            Bb
        Poate asa mai stergi din fapte


       F
REFREN: Sunt nopti,sunt zile si sunt ani
       Dm
        Sunt doar momente-n amalgam
       Bb                C
        Multe nuante parfumate
       F
        O gluma cand erai copil
       Dm                    Bb
        Un prim sarut din amintiri
                                   C
        Sau poate doar un vis in noapte


INTRO cu chitara I si II


VERS: Acum nu te poti privi
      Si nu iti regasesti sensul de a trai
      Incerci cat poti tu de mult
      Sa te aduni dar nu reusesti
      Te agati de un sfat banal
      Venit prin fum dintr-un pahar murdar
      Un chip pe care nu-l stii
      Incerci sa il distingi dar nu vei reusi

BRIDGE

REFREN

Bb         Dm  
Ce-am castigat
          Bb
Am si pierdut
         Dm
Ce am ratat
            Bb
Nicï nu am avut
            Dm
Cat de mult doresc 
       Bb
Sa rememorez..
           Dm
Poate doar asa… 


REFREN
  • ghit razvan
    25 decembrie 2010 13:52
    bine ma Aurel, asta ii o varianta...tu esti cu chitara solo, nu eu :>
  • Horge Razvan
    25 decembrie 2010 13:15
    bah il strica site-ul...tot ce vedetzi k ii 8 sub o cifra ii mai in fatza si ultimul 8 de pe coarda A termina solo-ul defapt nu-i acolo...
  • Horge Razvan
    25 decembrie 2010 13:14
    e|--------------------------------------------------------------------------
    B|--------------------------------------------------------------------------
    G|--------------------------------------------------------------------------
    D|-------5-7-5------------7-5---5-7-5---5-8-7~101010-888-777~5555-77h8p7-5--
    A|--8~-8-------8-7-7H8-5------8-------8------------------------------------8
    E|--------------------------------------------------------------------------
  • Horge Razvan
    25 decembrie 2010 13:11
    solo-ul de la inceput ii asa defapt ;))
    e|------------------------------------------------------------------
    B|------------------------------------------------------------------
    G|------------------------------------------------------------------
    D|------5-7-5----------7-5-5-7-5-5-8-7~101010-888-777~5555-77h8p7-5-
    A|--8~-8-----8-7-7H8-5----8-----8----------------------------------8
    E|------------------------------------------------------------------
6Ld5REUUAAAAAA1PBEDya2BDGnf5rYKeKnmYm4Cz
5f5736ca5c99d5640327f75da8ca97d3