Emeric Imre - Buna, varianta rea (Guitar Pro)

  • (1 voturi)
  • Contribuție:  gloom3tsu
  • Ultima actualizare: 15.08.2020
E |--------0--------0----------|--------0--------0----------|
B |-----------3--------3-------|-----------3--------3-------|
G |--------------0--------0----|--------------0--------0----|
D |----------------------------|----------------------------|
A |--3-------------------------|--2-------------------------|
E |----------------------------|----------------------------|


--------0--------0----------|--------0--------3----------|
-----------3--------3-------|-----------3--------3-------|
--------------0--------0----|--------------0--------0----|
----------------------------|----------------------------|
--1-------------------------|--0-------------------------|
----------------------------|----------------------------|


-----------1L-1L----------1-----------------------1-----------------------------
--------3L-3L-3L----------3-----------------------------------------------3-----
-----2L-2--2L-2L----------2-----------------------------------------------------
--0L-0--0--0L-0L----------0-----------------------------------------------------
--------------------------------------------------------------------------------
--------------------------------------------------------------------------------


------------------------------------------1-------------------------------------
------------------------------------------------------------------3-------------
------------------2-------------------------------------------------------------
--------------------------------------------------------------------------------
--------------------------------------------------------------------------------
--------------------------------------------------------------------------------


------------------------------------|
------------------------------------|
----------2-------------------------|
------------------------------------|
------------------------------------|
------------------------------------|


-----------1L-1L----------1-----------------------1-----------------------------
--------1L-1L-1L----------1-----------------------------------------------1-----
-----2L-2--2L-2L----------2-----------------------------------------------------
--3L-3--3--3L-3L----------3-----------------------------------------------------
--------------------------------------------------------------------------------
--------------------------------------------------------------------------------


------------------------------------------1-------------------------------------
------------------------------------------------------------------1-------------
------------------2-------------------------------------------------------------
--------------------------------------------------------------------------------
--------------------------------------------------------------------------------
--------------------------------------------------------------------------------


------------------------------------|-----3-----------5----------|
------------------------------------|--------0-----------0-------|
----------2-------------------------|-----------0-----------0----|
------------------------------------|----------------------------|
------------------------------------|----------------------------|
------------------------------------|--3-----------5-------------|


-----7--------7-------------|--------0--------0----------|
--------0--------0----------|-----------3--------3-------|
-----------0--------0-------|--------------0--------0----|
-----------------------0----|----------------------------|
----------------------------|--3-------------------------|
--7-------------------------|----------------------------|


--------0--------0----------|--------0--------0----------|
-----------3--------3-------|-----------3--------3-------|
--------------0--------0----|--------------0--------0----|
----------------------------|----------------------------|
--2-------------------------|--1-------------------------|
----------------------------|----------------------------|


--------0--------3----------|
-----------3--------3-------|
--------------0--------0----|
----------------------------|
--0-------------------------|
----------------------------|


-----------1L-1L----------1-----------------------1-----------------------------
--------3L-3L-3L----------3-----------------------------------------------3-----
-----2L-2--2L-2L----------2-----------------------------------------------------
--0L-0--0--0L-0L----------0-----------------------------------------------------
--------------------------------------------------------------------------------
--------------------------------------------------------------------------------


------------------------------------------1-------------------------------------
------------------------------------------------------------------3-------------
------------------2-------------------------------------------------------------
--------------------------------------------------------------------------------
--------------------------------------------------------------------------------
--------------------------------------------------------------------------------


------------------------------------|
------------------------------------|
----------2-------------------------|
------------------------------------|
------------------------------------|
------------------------------------|


-----------1L-1L----------1-----------------------1-----------------------------
--------1L-1L-1L----------1-----------------------------------------------1-----
-----2L-2--2L-2L----------2-----------------------------------------------------
--3L-3--3--3L-3L----------3-----------------------------------------------------
--------------------------------------------------------------------------------
--------------------------------------------------------------------------------


------------------------------------------1-------------------------------------
------------------------------------------------------------------1-------------
------------------2-------------------------------------------------------------
--------------------------------------------------------------------------------
--------------------------------------------------------------------------------
--------------------------------------------------------------------------------


------------------------------------|--0--------3--------12L-----|--12---|
------------------------------------|--0--------5--------10L-----|--10---|
----------2-------------------------|--0--------4--------10L-----|--10---|
------------------------------------|--2-------------------------|-------|
------------------------------------|--3-------------------------|-------|
------------------------------------|----------------------------|-------|


--------0--------0----------|--------0--------0----------|
-----------1--------1-------|-----------1--------1-------|
--------------0--------0----|--------------0--------0----|
----------------------------|--2-------------------------|
--3-------------------------|----------------------------|
----------------------------|----------------------------|


--------0--------0----------|--------0--------0----------|
-----------1--------1-------|-----------1--------1-------|
--------------0--------0----|--------------0--------0----|
----------------------------|--2-------------------------|
--3-------------------------|----------------------------|
----------------------------|----------------------------|


--------0--------0----------|--------0--------0----------|
-----------3--------3-------|-----------3--------3-------|
--------------0--------0----|--------------0--------0----|
----------------------------|----------------------------|
--3-------------------------|--2-------------------------|
----------------------------|----------------------------|


--------0--------0----------|
-----------3--------3-------|
--------------0--------0----|
----------------------------|
--1-------------------------|
----------------------------|


-----------1L-1L----------1-----------------------1-----------------------------
--------3L-3L-3L----------3-----------------------------------------------3-----
-----2L-2--2L-2L----------2-----------------------------------------------------
--0L-0--0--0L-0L----------0-----------------------------------------------------
--------------------------------------------------------------------------------
--------------------------------------------------------------------------------


------------------------------------------1-------------------------------------
------------------------------------------------------------------3-------------
------------------2-------------------------------------------------------------
--------------------------------------------------------------------------------
--------------------------------------------------------------------------------
--------------------------------------------------------------------------------


------------------------------------|
------------------------------------|
----------2-------------------------|
------------------------------------|
------------------------------------|
------------------------------------|


-----------1L-1L----------1-----------------------1-----------------------------
--------1L-1L-1L----------1-----------------------------------------------1-----
-----2L-2--2L-2L----------2-----------------------------------------------------
--3L-3--3--3L-3L----------3-----------------------------------------------------
--------------------------------------------------------------------------------
--------------------------------------------------------------------------------


------------------------------------------1-------------------------------------
------------------------------------------------------------------1-------------
------------------2-------------------------------------------------------------
--------------------------------------------------------------------------------
--------------------------------------------------------------------------------
--------------------------------------------------------------------------------


------------------------------------|
------------------------------------|
----------2-------------------------|
------------------------------------|
------------------------------------|
------------------------------------|


-----------1L-1L----------1-----------------------1-----------------------------
--------1L-1L-1L----------1-----------------------------------------------1-----
-----2L-2--2L-2L----------2-----------------------------------------------------
--3L-3--3--3L-3L----------3-----------------------------------------------------
--------------------------------------------------------------------------------
--------------------------------------------------------------------------------


------------------------------------------1-------------------------------------
------------------------------------------------------------------1-------------
------------------2-------------------------------------------------------------
--------------------------------------------------------------------------------
--------------------------------------------------------------------------------
--------------------------------------------------------------------------------


------------------------------------|-----3-----------5----------|
------------------------------------|--------0-----------0-------|
----------2-------------------------|-----------0-----------0----|
------------------------------------|----------------------------|
------------------------------------|----------------------------|
------------------------------------|--3-----------5-------------|


-----3--------3-------------|--------0--------0----------|
--------0--------0-----0----|-----------3--------3-------|
-----------0--------0-------|--------------0--------0----|
----------------------------|----------------------------|
----------------------------|--3-------------------------|
--3-------------------------|----------------------------|


--------0--------0----------|--------0--------0----------|
-----------3--------3-------|-----------3--------3-------|
--------------0--------0----|--------------0--------0----|
----------------------------|----------------------------|
--2-------------------------|--1-------------------------|
----------------------------|----------------------------|


-----------1L-1L----------1-----------------------1-----------------------------
--------3L-3L-3L----------3-----------------------------------------------3-----
-----2L-2--2L-2L----------2-----------------------------------------------------
--0L-0--0--0L-0L----------0-----------------------------------------------------
--------------------------------------------------------------------------------
--------------------------------------------------------------------------------


------------------------------------------1-------------------------------------
------------------------------------------------------------------3-------------
------------------2-------------------------------------------------------------
--------------------------------------------------------------------------------
--------------------------------------------------------------------------------
--------------------------------------------------------------------------------


------------------------------------|
------------------------------------|
----------2-------------------------|
------------------------------------|
------------------------------------|
------------------------------------|


-----------1L-1L----------1-----------------------1-----------------------------
--------1L-1L-1L----------1-----------------------------------------------1-----
-----2L-2--2L-2L----------2-----------------------------------------------------
--3L-3--3--3L-3L----------3-----------------------------------------------------
--------------------------------------------------------------------------------
--------------------------------------------------------------------------------


------------------------------------------1-------------------------------------
------------------------------------------------------------------1-------------
------------------2-------------------------------------------------------------
--------------------------------------------------------------------------------
--------------------------------------------------------------------------------
--------------------------------------------------------------------------------


------------------------------------|
------------------------------------|
----------2-------------------------|
------------------------------------|
------------------------------------|
------------------------------------|


-----------1L-1L----------1-----------------------1-----------------------------
--------1L-1L-1L----------1-----------------------------------------------1-----
-----2L-2--2L-2L----------2-----------------------------------------------------
--3L-3--3--3L-3L----------3-----------------------------------------------------
--------------------------------------------------------------------------------
--------------------------------------------------------------------------------


------------------------------------------1-------------------------------------
------------------------------------------------------------------1-------------
------------------2-------------------------------------------------------------
--------------------------------------------------------------------------------
--------------------------------------------------------------------------------
--------------------------------------------------------------------------------


------------------------------------|--------3--------3----------|
------------------------------------|-----------0--------0-------|
----------2-------------------------|--------------0--------0----|
------------------------------------|----------------------------|
------------------------------------|----------------------------|
------------------------------------|--3-------------------------|


--------0--------0----------|--------0--------0----------|
-----------1--------1-------|-----------1--------1-------|
--------------0--------0----|--------------0--------0----|
----------------------------|--2-------------------------|
--3-------------------------|----------------------------|
----------------------------|----------------------------|


--------0--------0----------|--------0--------0----------|
-----------1--------1-------|-----------0--------0-------|
--------------2--------2----|--------------0--------0----|
----------------------------|----------------------------|
--0-------------------------|----------------------------|
----------------------------|--0-------------------------|


--------1--------1----------|--------0--------0----------|
-----------1--------1-------|-----------1--------1-------|
--------------2--------2----|--------------0--------0----|
----------------------------|----------------------------|
----------------------------|--3-------------------------|
--1-------------------------|----------------------------|


--------0--------0----------|--------0--------0----------|
-----------1--------1-------|-----------0--------0-------|
--------------2--------2----|--------------0--------0----|
----------------------------|----------------------------|
--0-------------------------|----------------------------|
----------------------------|--0-------------------------|


--------1--------1----------|--------3--------3----------|
-----------1--------1-------|-----------0--------0-------|
--------------2--------2----|--------------0--------0----|
----------------------------|----------------------------|
----------------------------|----------------------------|
--1-------------------------|--3-------------------------|


--------0--------0----------|--0--------0--------0-------||
-----1--------1--------1----|--------1--------1-----1----||
-----------0--------0-------|-----0--------0-------------||
----------------------------|----------------------------||
--3-------------------------|----------------------------||
----------------------------|----------------------------||


-------0--------0----------|--------0--------0----------|
----------3--------3-------|-----------3--------3-------|
o------------0--------0----|--------------0--------0----|
o--------------------------|----------------------------|
-3-------------------------|--2-------------------------|
---------------------------|----------------------------|


--------0--------0----------|
-----------3--------3-------|
--------------0--------0----|
----------------------------|
--1-------------------------|
----------------------------|


-----------1L-1L----------1-----------------------1-----------------------------
--------3L-3L-3L----------3-----------------------------------------------3-----
-----2L-2--2L-2L----------2-----------------------------------------------------
--0L-0--0--0L-0L----------0-----------------------------------------------------
--------------------------------------------------------------------------------
--------------------------------------------------------------------------------


------------------------------------------1-------------------------------------
------------------------------------------------------------------3-------------
------------------2-------------------------------------------------------------
--------------------------------------------------------------------------------
--------------------------------------------------------------------------------
--------------------------------------------------------------------------------


------------------------------------|
------------------------------------|
----------2-------------------------|
------------------------------------|
------------------------------------|
------------------------------------|


-----------1L-1L----------1-----------------------1-----------------------------
--------1L-1L-1L----------1-----------------------------------------------1-----
-----2L-2--2L-2L----------2-----------------------------------------------------
--3L-3--3--3L-3L----------3-----------------------------------------------------
--------------------------------------------------------------------------------
--------------------------------------------------------------------------------


------------------------------------------1-------------------------------------
------------------------------------------------------------------1-------------
------------------2-------------------------------------------------------------
--------------------------------------------------------------------------------
--------------------------------------------------------------------------------
--------------------------------------------------------------------------------


------------------------------------|
------------------------------------|
----------2-------------------------|
------------------------------------|
------------------------------------|
------------------------------------|


-----------1L-1L----------1-----------------------1-----------------------------
--------1L-1L-1L----------1-----------------------------------------------1-----
-----2L-2--2L-2L----------2-----------------------------------------------------
--3L-3--3--3L-3L----------3-----------------------------------------------------
--------------------------------------------------------------------------------
--------------------------------------------------------------------------------


------------------------------------------1-------------------------------------
------------------------------------------------------------------1-------------
------------------2-------------------------------------------------------------
--------------------------------------------------------------------------------
--------------------------------------------------------------------------------
--------------------------------------------------------------------------------


------------------------------------|-----3-----------5----------|
------------------------------------|--------0-----------0-------|
----------2-------------------------|-----------0-----------0----|
------------------------------------|----------------------------|
------------------------------------|----------------------------|
------------------------------------|--3-----------5-------------|


-----3--------3-------------|--------0--------0----------|
--------0--------0-----0----|-----------3--------3-------|
-----------0--------0-------|--------------0--------0----|
----------------------------|----------------------------|
----------------------------|--3-------------------------|
--3-------------------------|----------------------------|


--------0--------0----------|--------0--------0----------|
-----------3--------3-------|-----------3--------3-------|
--------------0--------0----|--------------0--------0----|
----------------------------|----------------------------|
--2-------------------------|--1-------------------------|
----------------------------|----------------------------|


-----------1L-1L----------1-----------------------1-----------------------------
--------3L-3L-3L----------3-----------------------------------------------3-----
-----2L-2--2L-2L----------2-----------------------------------------------------
--0L-0--0--0L-0L----------0-----------------------------------------------------
--------------------------------------------------------------------------------
--------------------------------------------------------------------------------


------------------------------------------1-------------------------------------
------------------------------------------------------------------3-------------
------------------2-------------------------------------------------------------
--------------------------------------------------------------------------------
--------------------------------------------------------------------------------
--------------------------------------------------------------------------------


------------------------------------|
------------------------------------|
----------2-------------------------|
------------------------------------|
------------------------------------|
------------------------------------|


-----------1L-1L----------1-----------------------1-----------------------------
--------1L-1L-1L----------1-----------------------------------------------1-----
-----2L-2--2L-2L----------2-----------------------------------------------------
--3L-3--3--3L-3L----------3-----------------------------------------------------
--------------------------------------------------------------------------------
--------------------------------------------------------------------------------


------------------------------------------1-------------------------------------
------------------------------------------------------------------1-------------
------------------2-------------------------------------------------------------
--------------------------------------------------------------------------------
--------------------------------------------------------------------------------
--------------------------------------------------------------------------------


------------------------------------|
------------------------------------|
----------2-------------------------|
------------------------------------|
------------------------------------|
------------------------------------|


-----------1L-1L----------1-----------------------1-----------------------------
--------1L-1L-1L----------1-----------------------------------------------1-----
-----2L-2--2L-2L----------2-----------------------------------------------------
--3L-3--3--3L-3L----------3-----------------------------------------------------
--------------------------------------------------------------------------------
--------------------------------------------------------------------------------


------------------------------------------1-------------------------------------
------------------------------------------------------------------1-------------
------------------2-------------------------------------------------------------
--------------------------------------------------------------------------------
--------------------------------------------------------------------------------
--------------------------------------------------------------------------------


------------------------------------|--------3--------3----------|
------------------------------------|-----------0--------0-------|
----------2-------------------------|--------------0--------0----|
------------------------------------|----------------------------|
------------------------------------|----------------------------|
------------------------------------|--3-------------------------|


--------0--------0----------|--------0--------0----------|
-----------1--------1-------|-----------1--------1-------|
--------------0--------0----|--------------0--------0----|
----------------------------|--2-------------------------|
--3-------------------------|----------------------------|
----------------------------|----------------------------|


--------0--------0----------|--------0--------0----------|
-----------1--------1-------|-----------0--------0-------|
--------------2--------2----|--------------0--------0----|
----------------------------|----------------------------|
--0-------------------------|----------------------------|
----------------------------|--0-------------------------|


--------1--------1----------|--------0--------0----------|
-----------1--------1-------|-----------1--------1-------|
--------------2--------2----|--------------0--------0----|
----------------------------|----------------------------|
----------------------------|--3-------------------------|
--1-------------------------|----------------------------|


--------0--------0----------|--------0--------0----------|
-----------1--------1-------|-----------0--------0-------|
--------------2--------2----|--------------0--------0----|
----------------------------|----------------------------|
--0-------------------------|----------------------------|
----------------------------|--0-------------------------|


--------1--------1----------|--------3--------3----------|
-----------1--------1-------|-----------0--------0-------|
--------------2--------2----|--------------0--------0----|
----------------------------|----------------------------|
----------------------------|----------------------------|
--1-------------------------|--3-------------------------|


--------0--------0----------|--0--------0--------0------||
-----1--------1--------1----|--------1--------1-----1---||
-----------0--------0-------|-----0--------0-----------o||
----------------------------|--------------------------o||
--3-------------------------|---------------------------||
----------------------------|---------------------------||


--------0--------0----------|--------0--------0----------|
-----------3--------3-------|-----------3--------3-------|
--------------0--------0----|--------------0--------0----|
----------------------------|----------------------------|
--3-------------------------|--2-------------------------|
----------------------------|----------------------------|


--------0--------0----------|
-----------3--------3-------|
--------------0--------0----|
----------------------------|
--1-------------------------|
----------------------------|


-----------1L-1L----------1-----------------------1-----------------------------
--------3L-3L-3L----------3-----------------------------------------------3-----
-----2L-2--2L-2L----------2-----------------------------------------------------
--0L-0--0--0L-0L----------0-----------------------------------------------------
--------------------------------------------------------------------------------
--------------------------------------------------------------------------------


------------------------------------------1-------------------------------------
------------------------------------------------------------------3-------------
------------------2-------------------------------------------------------------
--------------------------------------------------------------------------------
--------------------------------------------------------------------------------
--------------------------------------------------------------------------------


------------------------------------|
------------------------------------|
----------2-------------------------|
------------------------------------|
------------------------------------|
------------------------------------|


-----------1L-1L----------1-----------------------1-----------------------------
--------1L-1L-1L----------1-----------------------------------------------1-----
-----2L-2--2L-2L----------2-----------------------------------------------------
--3L-3--3--3L-3L----------3-----------------------------------------------------
--------------------------------------------------------------------------------
--------------------------------------------------------------------------------


------------------------------------------1-------------------------------------
------------------------------------------------------------------1-------------
------------------2-------------------------------------------------------------
--------------------------------------------------------------------------------
--------------------------------------------------------------------------------
--------------------------------------------------------------------------------


------------------------------------|
------------------------------------|
----------2-------------------------|
------------------------------------|
------------------------------------|
------------------------------------|


-----------1L-1L----------1-----------------------1-----------------------------
--------1L-1L-1L----------1-----------------------------------------------1-----
-----2L-2--2L-2L----------2-----------------------------------------------------
--3L-3--3--3L-3L----------3-----------------------------------------------------
--------------------------------------------------------------------------------
--------------------------------------------------------------------------------


------------------------------------------1-------------------------------------
------------------------------------------------------------------1-------------
------------------2-------------------------------------------------------------
--------------------------------------------------------------------------------
--------------------------------------------------------------------------------
--------------------------------------------------------------------------------


------------------------------------|-----3-----------5----------|
------------------------------------|--------0-----------0-------|
----------2-------------------------|-----------0-----------0----|
------------------------------------|----------------------------|
------------------------------------|----------------------------|
------------------------------------|--3-----------5-------------|


-----3--------3-------------|--------0--------0----------|
--------0--------0-----0----|-----------3--------3-------|
-----------0--------0-------|--------------0--------0----|
----------------------------|----------------------------|
----------------------------|--3-------------------------|
--3-------------------------|----------------------------|


--------0--------0----------|--------0--------0----------|
-----------3--------3-------|-----------3--------3-------|
--------------0--------0----|--------------0--------0----|
----------------------------|----------------------------|
--2-------------------------|--1-------------------------|
----------------------------|----------------------------|


-----------1L-1L----------1-----------------------1-----------------------------
--------3L-3L-3L----------3-----------------------------------------------3-----
-----2L-2--2L-2L----------2-----------------------------------------------------
--0L-0--0--0L-0L----------0-----------------------------------------------------
--------------------------------------------------------------------------------
--------------------------------------------------------------------------------


------------------------------------------1-------------------------------------
------------------------------------------------------------------3-------------
------------------2-------------------------------------------------------------
--------------------------------------------------------------------------------
--------------------------------------------------------------------------------
--------------------------------------------------------------------------------


------------------------------------|
------------------------------------|
----------2-------------------------|
------------------------------------|
------------------------------------|
------------------------------------|


-----------1L-1L----------1-----------------------1-----------------------------
--------1L-1L-1L----------1-----------------------------------------------1-----
-----2L-2--2L-2L----------2-----------------------------------------------------
--3L-3--3--3L-3L----------3-----------------------------------------------------
--------------------------------------------------------------------------------
--------------------------------------------------------------------------------


------------------------------------------1-------------------------------------
------------------------------------------------------------------1-------------
------------------2-------------------------------------------------------------
--------------------------------------------------------------------------------
--------------------------------------------------------------------------------
--------------------------------------------------------------------------------


------------------------------------|
------------------------------------|
----------2-------------------------|
------------------------------------|
------------------------------------|
------------------------------------|


-----------1L-1L----------1-----------------------1-----------------------------
--------1L-1L-1L----------1-----------------------------------------------1-----
-----2L-2--2L-2L----------2-----------------------------------------------------
--3L-3--3--3L-3L----------3-----------------------------------------------------
--------------------------------------------------------------------------------
--------------------------------------------------------------------------------


------------------------------------------1-------------------------------------
------------------------------------------------------------------1-------------
------------------2-------------------------------------------------------------
--------------------------------------------------------------------------------
--------------------------------------------------------------------------------
--------------------------------------------------------------------------------


------------------------------------|--------3--------3----------|
------------------------------------|-----------0--------0-------|
----------2-------------------------|--------------0--------0----|
------------------------------------|----------------------------|
------------------------------------|----------------------------|
------------------------------------|--3-------------------------|


--------0--------0----------|--------0--------0----------|
-----------1--------1-------|-----------3--------3-------|
--------------0--------0----|--------------0--------0----|
----------------------------|----------------------------|
--3-------------------------|--3-------------------------|
----------------------------|----------------------------|


--------0--------0----------|--------0--------0----------|
-----------3--------3-------|-----------3--------3-------|
--------------0--------0----|--------------0--------0----|
----------------------------|----------------------------|
--2-------------------------|--1-------------------------|
----------------------------|----------------------------|


--------0--------3----------|
-----------3--------3-------|
--------------0--------0----|
----------------------------|
--0-------------------------|
----------------------------|


-----------1L-1L----------1-----------------------1-----------------------------
--------3L-3L-3L----------3-----------------------------------------------3-----
-----2L-2--2L-2L----------2-----------------------------------------------------
--0L-0--0--0L-0L----------0-----------------------------------------------------
--------------------------------------------------------------------------------
--------------------------------------------------------------------------------


------------------------------------------1-------------------------------------
------------------------------------------------------------------3-------------
------------------2-------------------------------------------------------------
--------------------------------------------------------------------------------
--------------------------------------------------------------------------------
--------------------------------------------------------------------------------


------------------------------------|
------------------------------------|
----------2-------------------------|
------------------------------------|
------------------------------------|
------------------------------------|


-----------1L-1L----------1-----------------------1-----------------------------
--------1L-1L-1L----------1-----------------------------------------------1-----
-----2L-2--2L-2L----------2-----------------------------------------------------
--3L-3--3--3L-3L----------3-----------------------------------------------------
--------------------------------------------------------------------------------
--------------------------------------------------------------------------------


------------------------------------------1-------------------------------------
------------------------------------------------------------------1-------------
------------------2-------------------------------------------------------------
--------------------------------------------------------------------------------
--------------------------------------------------------------------------------
--------------------------------------------------------------------------------


------------------------------------|-----3-----------5----------|
------------------------------------|--------0-----------0-------|
----------2-------------------------|-----------0-----------0----|
------------------------------------|----------------------------|
------------------------------------|----------------------------|
------------------------------------|--3-----------5-------------|


-----7--------7-------------|--------0--------0----------|
--------0--------0----------|-----------3--------3-------|
-----------0--------0-------|--------------0--------0----|
-----------------------0----|----------------------------|
----------------------------|--3-------------------------|
--7-------------------------|----------------------------|


--------0--------0----------|--------0--------0----------|
-----------3--------3-------|-----------3--------3-------|
--------------0--------0----|--------------0--------0----|
----------------------------|----------------------------|
--2-------------------------|--1-------------------------|
----------------------------|----------------------------|


--------0--------3----------|
-----------3--------3-------|
--------------0--------0----|
----------------------------|
--0-------------------------|
----------------------------|


-----------1L-1L----------1-----------------------1-----------------------------
--------3L-3L-3L----------3-----------------------------------------------3-----
-----2L-2--2L-2L----------2-----------------------------------------------------
--0L-0--0--0L-0L----------0-----------------------------------------------------
--------------------------------------------------------------------------------
--------------------------------------------------------------------------------


------------------------------------------1-------------------------------------
------------------------------------------------------------------3-------------
------------------2-------------------------------------------------------------
--------------------------------------------------------------------------------
--------------------------------------------------------------------------------
--------------------------------------------------------------------------------


------------------------------------|
------------------------------------|
----------2-------------------------|
------------------------------------|
------------------------------------|
------------------------------------|


-----------1L-1L----------1-----------------------1-----------------------------
--------1L-1L-1L----------1-----------------------------------------------1-----
-----2L-2--2L-2L----------2-----------------------------------------------------
--3L-3--3--3L-3L----------3-----------------------------------------------------
--------------------------------------------------------------------------------
--------------------------------------------------------------------------------


------------------------------------------1-------------------------------------
------------------------------------------------------------------1-------------
------------------2-------------------------------------------------------------
--------------------------------------------------------------------------------
--------------------------------------------------------------------------------
--------------------------------------------------------------------------------


------------------------------------|--0--------3--------12L-----|--12---||
------------------------------------|--0--------5--------10L-----|--10---||
----------2-------------------------|--0--------4--------10L-----|--10---||
------------------------------------|--2-------------------------|-------||
------------------------------------|--3-------------------------|-------||
------------------------------------|----------------------------|-------||
  • smart
    14 august 2020 18:30
    Nu pot descarca documentul. Il puteti posta in alt mod?
  • Dot.
    4 noiembrie 2012 01:55
    Deci e pur si simplu perfecta tabulatura ! Iti multumesc din sufleeeeeet !!!
6Ld5REUUAAAAAA1PBEDya2BDGnf5rYKeKnmYm4Cz
a90f2bc1fb0c6fe806e1b4051718738a