Emeric Imre - Nebun de alb - intro

  • (6 voturi)
  • Contribuție:  dudutsz
Am incercat sa o pun cum o cant eu, poate notatiile nu sunt cele mai bune:
h-hammer on
p-pull off
-slide
si b(1/2) e bend de jumatate de ton.

Intro:

e|-----------------------------------------------------------------------------------------
B|-----------------------------------------------------------------------------------------
G|----------------------------7------79-------10p9p7h9----7----9---10-----12----10-------9-
D|------777----9---10----------------------------------------------------------------------
A|--0--------------------------------------------------------------------------------------
E|-----------------------------------------------------------------------------------------

e|-----------------------------------------------------------------------------------------
B|--10----12----13---13---13----15b(1/2)----12h13p12----10h12p10-----9h10p9----------------
G|-----------------------------------------------------------------------------------------
D|-----------------------------------------------------------------------------------------
A|-----------------------------------------------------------------------------------------
E|-----------------------------------------------------------------------------------------

e|-------------------------------------------------------------------------8---7-----------
B|---------------------------------------------------------------------------------8-------
G|--12----10-----9------7--------------------------------------------------------------9---
D|-----------------------------10-------9-------7----7----9----101214----------------------
A|-----------------------------------------------------------------------------------------
E|-----------------------------------------------------------------------------------------

e|-----------------------------------------------------------------------------------------
B|-----------------------------------------------------------------------------------------
G|--5----4---------------------------------------------------------------------------------
D|---------------5-------------------------------------------------------------------------
A|---------------------7-------------------------------------------------------------------
E|-----------------------------------------------------------------------------------------
  • Radu.
    31 ianuarie 2012 17:37
    @ tzutzu acordurile sunt Am, F, Bm6, B7, F
  • tzutzu
    9 mai 2011 22:43
    ok am si eu o intrebare ce acorduri sunt pe fundal la acest intro ce tab se potriveste cu soloul asta
6Ld5REUUAAAAAA1PBEDya2BDGnf5rYKeKnmYm4Cz
a3e6a8f28762710a7377b14154a9c43c