Emeric Imre - Oratie de nunta (intro)

Ciupitura din intro este pe tot cantecul . Celelalte acorduri le gasiti la celelalte transpuneri. Bafta!

E |--------7--------7----------|--------7--------7----------|
B |-----------0--------0-------|-----------0--------0-------|
G |--------------0--------0----|--------------0--------0----|
D |----------------------------|----------------------------|
A |--7-------------------------|--6-------------------------|
E |----------------------------|----------------------------|


--------7--------7----------|--------5--------5----------|
-----------0--------0-------|-----------0--------0-------|
--------------0--------0----|--------------0--------0----|
----------------------------|----------------------------|
--5-------------------------|--4-------------------------|
----------------------------|----------------------------|


--------3--------3----------|-----------------3----------|
-----------0--------0-------|--------------------0-------|
--------------0--------0----|-----------------------0----|
----------------------------|----------------------------|
--3-------------------------|--2s-3s-2-------------------|
----------------------------|-----------3----------------|


--------3--------0----------|--------------2-------------||
-----------1--------1-------|-----------0-----0-----0----||
--------------2--------2----|--------2-----------2-------||
----------------------------|-----1----------------------||
--0-------------------------|--2-------------------------||
----------------------------|----------------------------||
5d68c33ae2b2f79f97d8f5d89f66d492