Eugen Avram - Cantec pentru tine

  • (8 voturi)
  • Contribuție:  Vlad Pustai
  • Ultima actualizare: 03.06.2009
Intro: G A C D 

G           Bm    C             D   Dsus4
  Oamenii spun ca ce-i normal e bine
G             Bm       C             D
De-aia ar fi normal sa nu-mi pese de tine
        Em              Bm     C          Cm    (se canta intro-ul)
Dar nu pot, imi iesi in cale, ochii mei te vad
G         Bm    C             D   Dsus4
  Ce vina am ca esti asa frumoasa
G         Bm           C                  D
  Ce vina am ca treci pe drumul meu spre casa
        Em               Bm   C             Cm        
Iar in plus, sunt norme care nu-mi dau voie sa te-opresc
   G                      A           C        D   Dsus4 D
Si sa-ti vorbesc, sa-ti destainuiesc cat te doresc

Refren:
                 C   Am                 G   Em
Cand vad parul tau, mi-aduc aminte de liceu
             Am           D                       G
De prima dragoste curata,   ce nimeni nu o uita niciodata
         C    Am                   G
Cu parul tau, as vrea sa ma joc si eu
Em             Am   D      C    G
Cum face sotul tau,   cateodata

                Bm   C          D   Dsus4
A mai trecut un an, inc-o primavara
G               Bm         C         D
 N-am reusit sa-ncalc vreo norma sociala
Em                         Bm      C   Cm
Te-am vazut, astazi te-am revazuuuuuut
G               Bm   C                D   Dsus4
  Nu te-ai schimbat, arati chiar mai bine
G              Bm          C             D
  Nu m-am schimbat deloc, doar ceva din mine
Em             Bm            C          Cm
Te vreau peste putinta mea, nu ma pot desprinde de 
G             A            C      D
Imaginea ta, privirea ta, dorinta mea

Refren...

C     Am     G           Em
  Anii trec, primaveri se duc
     Am   D        G
E normal,   nu-i bine
C         Am      G        Em
  Nu se stie daca o s-apuc
      Am          D      Em
Sa vorbesc, sa petrec cu tine
C            Am               G          Em
   Sa-ti vorbesc e greu, dar pot sa-ti cant
    Am   D    G
E normal,   e bine  
C           Am       G         Em
  Iata-mi purtatorul de cuvant
Am       Asus2   F   C  G
  Cantec pentru tine 

Refren...
  • slatina
    12 iulie 2013 12:27
    G A C D
    |---------2--3-------2--3---------2---3------------2h3---|
    |---------3--3-------3--3---------3---3---------3-------3|
    |------0-----------2----------0--------------2-----------|
    |----------------------------------------0---------------|
    |---------------0----------3-----------------------------|
    |---3----------------------------------------------------|

    Varianta mea de intro
  • dan amarandei
    2 iulie 2013 20:05
    Multumesc! ai dreptate, cam asa suna. Doar ca ma tot screm sa prind si eu acel pasaj dintre versuri. Se observa bine si in varianta cantata de walter ghicolescu.
  • cfv1000
    30 iunie 2013 13:06
    G A C D
    |3-----------------------------------------|
    |---------0---------3----------------------|
    |-------------------------------0----------|
    |--0---0----2---2------2---2------2------2-|
    |----3--------2----------1------------3----|
    |----3--------0----------0---------2h3-----|

    - A 2-a incercare.. Site-u nu a procesat bine tasta tab :D
  • cfv1000
    30 iunie 2013 13:05
    Ciupitura pe intro ar fi

    G A C D
    |3-----------------------------------------|
    |---------0---------3----------------------|
    |-------------------------------0----------|
    |--0---0----2---2------2---2------2------2-|
    |----3--------2----------1------------3----|
    |----3--------0----------0---------2h3-----|

    Sper ca e ok
  • dan amarandei
    2 iunie 2013 22:55
    oare care e intro-ul?
1783aa8a633484b80d5b3b3eb92e8906