Fără Zahăr - 2r2rik

  • (2 voturi)
  • Contribuție:  Volkane
  • Ultima actualizare: 08.10.2011
Intro:

e|-----2-------2-------2-2-h3-2-------0-------0-------3----3-----0-|
B|-----------------------------------------------------------------|
G|-2-------2-------2--------------2-------2-------2----------------|
D|-----------------------------------------------------------------|
A|-----------------------------------------------------------------|
E|-----------------------------------------------------------------|


Strofă:
   D                             A
e|-----2-------2-------3---3---2-----0-------0-------3---3---2-|
B|---3---3---3---3---3---3---3-----2---2---2---2---2---2---2---|
G|-2-------2-------2-------------2-------2-------2-------------|
D|-------------------------------------------------------------|
A|-------------------------------------------------------------|
E|-------------------------------------------------------------|
   ^                             ^
   |                             |

#Notă: fiecare acord este deasupra silabei pe care se începe
       ciupitura (adica nota indicată cu sageată)

 D             A                   D
   Primăvara plouă, turturelele se ouă
               A                   D
   Primăvara plouă, turturelele se ouă
                     A                   D
   Vino dar iubita mea să vedem o turturea
                     A                      D A
   Vino dar iubita mea s-o vedem şi noi pe ea

Vara plouă, turturelele se ouă
Vara plouă, turturelele se ouă
Vino dar iubita mea să vedem o turturea
Vino dar iubita mea s-o vedem şi noi pe ea

Toamna plouă, turturelele se ouă
Toamna plouă, turturelele se ouă
Vino dar iubita mea să vedem o turturea
Vino dar iubita mea s-o vedem şi noi pe ea

Iarna ninge, deci nu plouă, turturelele se ouă
Iarna ninge, deci nu plouă, turturelele se ouă
Vino dar iubita mea să ne dăm cu sania
Vino dar iubita mea să ne dăm cu sania

Turturele, de unde pana mea
Turturele, de unde pana mea
6Ld5REUUAAAAAA1PBEDya2BDGnf5rYKeKnmYm4Cz
46470044d428eb7ffdec363519b9af51