Fără Zahăr - Despre starea natiunii (bass)

  • (1 voturi)
  • Contribuție:  Fara Dan
  • Ultima actualizare: 07.10.2010
Tabulatura pentru chitara bas asa cum este inregistrata pe albumul Neamul lui Penes Curcanul

Intro:
   Em         D         Am         Em
G-----------|----------|----------|-----------
D-------4-5-|----------|----------|-----------
A--7--------|-5----5-7-|----------|-7---------
E-----------|----------|-5----5-7-|-----------

Strofa:
   Em         D             Am          Em
G-----------|--------------|----------|-------
D-------4-5-|------7-9-7---|----------|-------
A--7--------|-5----------7-|----------|--7----
E-----------|--------------|-5----5-7-|-------

   Em         D          Am          Em
G-----------|----------|-----------|----------
D-------4-5-|----------|-----------|----------
A--7--------|-5----5-7-|-----------|-7--------
E-----------|----------|-5-----5-7-|----------


Refren:
      Em                          D
G------------------7---------|---------------
D----------5--7-9----9--7--5-|---------------
A--5--7-7--------------------|-3--5-5--3--5--
E----------------------------|---------------

      Am                    Em 
G-------------------5-----|-----------------
D---------------5-7---7-5-|------5----------
A----------5--7-----------|-7-7-----7-------
E--3--5-5-----------------|-----------------




Enjoy!