Fără Zahăr - Hip hop s-asa

  • (1 voturi)
  • Contribuție:  Strel0k
Hip-hop ş-aşa

INTRO:
Chitara acustica:
---3-----3---3---4-----4---4---3-----3---3—-4-3-0-3-4-3-0-3--
-------------------------------------------------------------
-------------------------------------------------------------
-2---2-2---2---3---3-3---3---2---2-2---2---------------------
-------------------------------------------------------------
-------------------------------------------------------------

Chitara 1 (electrica) – intra dupa intro                  
-----------------------------
-----------------------------
-----------------------------      
----------------------------- 
------------7----------7h8---
-0--7—0-7h8----0--0-7h8------

Chitara 2 (acustica) – canta pana la sfarsit
---3-----3---3---4-----4---4---3-----3---3--3h4-3h4-3-0---0-0-
--------------------------------------------------------3-----
--------------------------------------------------------------
-2---2-2---2---3---3-3---3---2---2-2---2----------------------
--------------------------------------------------------------
--------------------------------------------------------------

Foaie verde ş-un dudău
Eu mi-s fiu de ninjalău.
M-o bătut aseară mama
C-am tăiat porcu’ cu lama.

Haa, ha, ha, ha, ha, haa şi trompeţica...
Ping! Pong! Uăi, boule, uăi!
Haa, ha, ha, ha, ha, ha şi iarăşi trompeţica...
Ping! Pong! Uăi, boule, uăi!

Astă noapte, mama soacră
O furat din şur-o vacă.
Eu de draci mănânc pământu’,
Mama-i ia lu’ soacra gâtu’.

Peste drum am un vecin
Care-i fiu de şaolin.
L-o-nvăţat tat-su karate
şi vrea s-o facem parte-n parte.

Tata meu mă enervează,
Stă şi bea şi nu lucrează.
Acu’ urlă şi se-ndoaie
Că i-am tras un şut în...
Ping şi Pong! Uăi, boule, uăi!