Fără Zahăr - Iarta-ma mamica

Transpunere: Mentor [ mentor@go.ro ]

Intro si versuri:
|-------------------------|-------------------------|
|-------------------------|--------0----------0-----|
|--------0----------0-----|-----------2----------2--|
|-----------2----------2--|-----2-------------------|
|-----2-------------------|--0-------------0--------|
|--0-------------0--------|-------------------------|

|-------------------------|-------------------------|
|--------0--1-------0--1--|-------------------4--5--|
|-------------------------|--------4----------------|
|-----2-------------------|-----4-----4-------------|
|--3-------------3--------|--2-------------2--------|
|-------------------------|-------------------------|
                                                     
Solistica la refren:
|----------------------|------------------------|
|--8------7--5----5----|--8--8--8--7--5----5----|
|----------------------|------------------------|
|----------------------|------------------------|
|----------------------|------------------------|
|----------------------|------------------------|

|------------------------|-----------------------|
|--8----5----10----10----|--10--8--5----5--------|
|------------------------|-----------------------|
|------------------------|-----------------------|
|------------------------|-----------------------|
|------------------------|-----------------------|

                                                  
|-----------------------|----------------------|
|--5----5--5--8----8----|--5----5--------------|
|-----------------------|------------5----5----|
|-----------------------|----------------------|
|-----------------------|----------------------|
|-----------------------|----------------------|

|-----------------------|-----------------------||
|--8--------7--8--7--8--|--7--5-----5--7--------||
|-----------------------|--------8--------------||
|-----------------------|-----------------------||
|-----------------------|-----------------------||
|-----------------------|-----------------------||
  • Volkane
    7 decembrie 2009 01:09
    solistica e buna insa introul si versurile nu