Fără Zahăr - Legenda caprii (bass)

  • Contribuție:  Fara Dan
  • Ultima actualizare: 07.10.2010
Tabulatura reprezinta linia de bass asa cum a fost inregistrata pe albumul Neamul lui Penes Curcanul (www.farazahar.com)

Strofa:
   D      D        A     D
G------|---------|-----|---------
D------|---------|-----|---------
A--5-5-|----5-5--|-----|---5-5---
E------|--5------|-5-5-|-5-------

Refren:
   D            D            A            D
G----------7-|----------7-|------------|----------7--
D----4-5-7---|----4-5-7---|----------7-|----4-5-7----
A--5---------|--5---------|----4-5-7---|--5----------
E------------|-----|------|--5---------|-------------

   D              D            A            D
G-----------7--|----------7-|------------|----------7--
D-----4--7-----|----4--7----|----------7-|-----4--7----
A--5-----------|--5---------|----4--7----|--5----------
E--------------|------------|--5---------|-------------


Cam pe acolo sta treaba.

Enjoy !
6Ld5REUUAAAAAA1PBEDya2BDGnf5rYKeKnmYm4Cz
1aab20ec2f5df7fb12f1b57c94c5af46