Fly Project - Goodbye

1:20 - 1:51

Acord 1

E|---------13-11-11-11-13-------11-11-11-13-------11-11-11-13-------------------------|
B|-----------------------13-----------------13---------------13----13-11-9-8-6--------|
G|--/10-------------------------------------------------------------------------------|
D|------------------------------------------------------------------------------------|
A|------------------------------------------------------------------------------------|
E|------------------------------------------------------------------------------------|


Acord 2


E|-----13-11-11-11-13-------11-11-11-13-------11-11-11-13-----------11-11-11/13-13-13-|
B|-------------------------------------------------------------13-13------------------|
G|------------------------------------------------------------------------------------|
D|------------------------------------------------------------------------------------|
A|------------------------------------------------------------------------------------|
E|------------------------------------------------------------------------------------|


( Acord 1 + Acord 2 )x2                    Acodurile sunt unul dupa altul.


Partile de chitara sunt aceleasi la mijlocul si sfarsitul melodiei.
6Ld5REUUAAAAAA1PBEDya2BDGnf5rYKeKnmYm4Cz
872c06abe3e1355795371ab5aff1cc39