Focul Viu - Aduceri aminte

  • (2 voturi)
  • Contribuție:  vallleriu
Focul Viu - Aduceri aminte 

Intro: 

  Dm                  Dm             Dm           Dm             
e-------1-----------3---1--------------1---------1-----|
B-----3---3----------------3---------3---3---------3---|
G---2-------2----2-----------2----2--------2---2-------|
D-0------------0----------------0------------0---------|
A------------------------------------------------------|
E------------------------------------------------------| 

          C                 Am
e-------------0-------------3/5---6-5-3-1-0-----------|
B-----------------1---------------------------(1h)3---|
G---------------0---0---------------------------------|
D---------2--------------2----------------------------|
A-0-2-3---------------0-------------------------------|
E-----------------------------------------------------|

Si urmeaza inca o bucata simpla de intro pe Dm, Dm, C, Am (ca mai sus, fara primele doua Dm)


Dm                     C
Bunicul spunea ca pe raze
Am                     Dm
Putem sa urcam pan' la cer
Tu mori intr-o masca de gaze
Eu mor intr-un vechi submarin

Si cat ne rugam sa mai ninga
De sanii faceam mereu rost
Tu mori sub beton de-adapost
Eu mor intr-o stramba carlinga

R:
Am                  C
In numele cui ne uram?
Am                  Dm
In numele cui ne-omoram?
Eu vreau pace, tu vrei pace
El vrea pace, Ea vrea pace
Noi vrem pace, voi vreti pace
Insa pacea nu se face..
Nu se face cu razboi.. ci cu oamenii din noi..

Tin minte aveam si-o bunica
Ziua torcea in pridvor
Tu tremuri pe-o mana de frica
Eu tremur si vreau sa te-omor

Iubeai nebuneste o fata
Ceva ma rugai sa-i compun
Tu mori intr-un lagar nebun
Eu mor pe o sarma ghimpata

R: ...

Tin minte plecarea din zori
In urma lasasem catunul
Tu tragi dinspre mare cu tunul
Eu trag nuclear dintre nori

Acum c'am visat rand pe rand
Destul cu aduceri aminte
Tu esti o cenusa fierbinte
Eu sunt o cenusa zburand

R: ...
  • apasaciu
    26 februarie 2012 14:01
    asa este ... catalins are dreptate .
  • catalins
    8 septembrie 2010 10:00
    Toate bune, doar ca in loc de "Am" e "A" peste tot, iar la intro apare si un Cadd9 facut din C si, deasemenea - "Dsus2" si "Dsus4" facute din "Dm"
d45978d7cb22c33adcd4d360a172af4f
6Ld5REUUAAAAAA1PBEDya2BDGnf5rYKeKnmYm4Cz