Folclor - Nuneasca

tempo de sarba
nivel intermediar-avansat
aranjament facut de mine in Amin cu o transpunere in Dmaj in ultima strofa
piesa,respectiv acorduriile sunt atasate in fisierul guitar pro gp5

E ||-0-----1-----0-----0-------------------------------------------------------|
B ||-------------------------------------3-----------1-----------3-------------|
G ||o--------------------------------------------------------------------------|
D ||o--------------------------------------------------------------------------|
A ||---------------------------------------------------------------------------|
E ||---------------------------------------------------------------------------|


----------------------|
--1--------0--1--3----|
-----0--2-------------|
----------------------|
----------------------|
----------------------|


--0-----1-----0-----0-------------------------------------------------------|
--------------------------------------3-----------1-----------3-------------|
----------------------------------------------------------------------------|
----------------------------------------------------------------------------|
----------------------------------------------------------------------------|
----------------------------------------------------------------------------|


----------------------------------------------------------------------------|
--1-----0-----1L----1-----------------0-----------1-----------3-------------|
----------------------------------------------------------------------------|
----------------------------------------------------------------------------|
----------------------------------------------------------------------------|
----------------------------------------------------------------------------|


--0-----1-----0-----0-------------------------------------------------------|
--------------------------------------3-----------1-----------3-------------|
----------------------------------------------------------------------------|
----------------------------------------------------------------------------|
----------------------------------------------------------------------------|
----------------------------------------------------------------------------|


-----------2--0-------|
--1--0--1--4-----3----|
----------------------|
----------------------|
----------------------|
----------------------|


----------------------------------------------------------------------------|
--1-----3-----1-----1-----------------0-----------------------0-------------|
--------------------------------------------------1-------------------------|
----------------------------------------------------------------------------|
----------------------------------------------------------------------------|
----------------------------------------------------------------------------|


---------------------------------------------------------------------------||
-----------------------------------------------0--------1--------3---------||
--2-----1-----2L----2-----------------2-----------------------------------o||
-----------------------------2--------------------------------------------o||
---------------------------------------------------------------------------||
---------------------------------------------------------------------------||


----------------------------------------------------------------------------||
----------------------------------------------------------------------------||
--2-----1-----2L----2-------------------------------------------------------||
----------------------------------------------------------------------------||
----------------------------------------------------------------------------||
----------------------------------------------------------------------------||


---------------------------------------|----------------|
-0-------------------------------------|----------------|
o1--------2----------------------------|-----------0----|
o------------------2--1--2L-2L---------|--2-----4-------|
---------------------------------------|----------------|
---------------------------------------|----------------|


----------------------------------------------------------------------------|
----------------------------------------------------------------------------|
--0-----2-----0L----0-----------------0-----1-----2L----2L------------------|
----------------------------------------------------------------------------|
----------------------------------------------------------------------------|
----------------------------------------------------------------------------|


----------------|----------------------------------------|----------------|
----------------|--0-------------------------------------|----------------|
--2-------------|--1--------2----------------------------|-----------0----|
-----------2----|--------------------2--1--2L-2L---------|--2-----4-------|
----------------|----------------------------------------|----------------|
----------------|----------------------------------------|----------------|


----------------------------------------------------------------------------|
----------------------------------------------------------------------------|
--0-----2-----0L----0-------------------------------------------------------|
--------------------------------------3-----------------2L------------------|
----------------------------------------------------------------------------|
----------------------------------------------------------------------------|


---------------------||--------1-------||
---------------------||--------0-------||
--------0-----------o||--------0-------||
--2--4-----------2--o||--2-----12------||
-----------0--3------||----------------||
---------------------||----------------||


-0-----1-----0-----0-------------------------------------------------------|
-------------------------------------3-----------1-----------3-------------|
o--------------------------------------------------------------------------|
o--------------------------------------------------------------------------|
---------------------------------------------------------------------------|
---------------------------------------------------------------------------|


----------------------|
--1--------0--1--3----|
-----0--2-------------|
----------------------|
----------------------|
----------------------|


--0-----1-----0-----0-------------------------------------------------------|
--------------------------------------3-----------1-----------3-------------|
----------------------------------------------------------------------------|
----------------------------------------------------------------------------|
----------------------------------------------------------------------------|
----------------------------------------------------------------------------|


----------------------------------------------------------------------------|
--1-----0-----1L----1-----------------0-----------1-----------3-------------|
----------------------------------------------------------------------------|
----------------------------------------------------------------------------|
----------------------------------------------------------------------------|
----------------------------------------------------------------------------|


--0-----1-----0-----0-------------------------------------------------------|
--------------------------------------3-----------1-----------3-------------|
----------------------------------------------------------------------------|
----------------------------------------------------------------------------|
----------------------------------------------------------------------------|
----------------------------------------------------------------------------|


-----------2--0-------|
--1--0--1--4-----3----|
----------------------|
----------------------|
----------------------|
----------------------|


----------------------------------------------------------------------------|
--1-----3-----1-----1-----------------0-----------------------0-------------|
--------------------------------------------------1-------------------------|
----------------------------------------------------------------------------|
----------------------------------------------------------------------------|
----------------------------------------------------------------------------|


---------------------------------------------------------------------------||
-----------------------------------------------0--------1--------3---------||
--2-----1-----2L----2-----------------2-----------------------------------o||
-----------------------------2--------------------------------------------o||
---------------------------------------------------------------------------||
---------------------------------------------------------------------------||


----------------------------------------------------------------------------||
----------------------------------------------------------------------------||
--2-----1-----2L----2-------------------------------------------------------||
----------------------------------------------------------------------------||
----------------------------------------------------------------------------||
----------------------------------------------------------------------------||


-2-----------3-----------5-----------3-----5-----3L----3--------0----------|
---------------------------------------------------------------------------|
o--------------------------------------------------------------------------|
o--------------------------------------------------------------------------|
---------------------------------------------------------------------------|
---------------------------------------------------------------------------|


--3-----------1-----------0-----------------0-------------------------------|
--------------------------------------3-----------3L----3--------1----------|
----------------------------------------------------------------------------|
----------------------------------------------------------------------------|
----------------------------------------------------------------------------|
----------------------------------------------------------------------------|


--0--0--1--0----|
----------------|
----------------|
----------------|
----------------|
----------------|


--------0-----------------------------0-----------0L----0-------------------|
--3-----------3L----3--------1--------------4--------------------1----------|
----------------------------------------------------------------------------|
----------------------------------------------------------------------------|
----------------------------------------------------------------------------|
----------------------------------------------------------------------------|


--2-----------3-----------5-----------3-----5-----3L----3--------0----------|
----------------------------------------------------------------------------|
----------------------------------------------------------------------------|
----------------------------------------------------------------------------|
----------------------------------------------------------------------------|
----------------------------------------------------------------------------|


--3-----------1-----------0-----------------0-------------------------------|
--------------------------------------3-----------3L----3--------1----------|
----------------------------------------------------------------------------|
----------------------------------------------------------------------------|
----------------------------------------------------------------------------|
----------------------------------------------------------------------------|


--0--0--1--0----|
----------------|
----------------|
----------------|
----------------|
----------------|


--------0------------------------------------------------------------------|||
--3-----------3L----3--------0--------1-----0-----1L----1------------------|||
--------------------------------------------------------------------------o|||
--------------------------------------------------------------------------o|||
---------------------------------------------------------------------------|||
---------------------------------------------------------------------------|||


---------------------------------------|
---------------------------------------|
o--------------------------------------|
o---------0-----0--0-----------0-------|
-0-----------4-----------0-------------|
---------------------------------------|


----------------------------------------------------------------------------|
----------------------------------------------------------------------------|
--------------------------------------0-----------0L----0-------------------|
--3-----------------4-----------------------4-------------------------------|
----------------------------------------------------------------------------|
----------------------------------------------------------------------------|


----------------------|
----------------------|
----------------------|
--4--3--4--0--3--4----|
----------------------|
----------------------|


----------------------------------------------------------------------------|
----------------------------------------------------------------------------|
--0-----2-----0L----0--------0----------------------------------------------|
--------------------------------------4-----------3-----------4-------------|
----------------------------------------------------------------------------|
----------------------------------------------------------------------------|


----------------------|
--0--1--0-------------|
--7--------2--1--2----|
----------------------|
----------------------|
----------------------|


--0-------------------------------------------------------------------------|
--2-----------3-------------------------------------------------------------|
--------------------------2-----------1-----0-----1L----1--------1----------|
----------------------------------------------------------------------------|
----------------------------------------------------------------------------|
----------------------------------------------------------------------------|


----------------------|---------------------||
-----------0----------|---------------------||
-----------1--2-------|--------1--2--1--2--o||
--4--3--4--------4----|--0--4--------------o||
----------------------|---------------------||
----------------------|---------------------||


----------------------------------------|----------------||
--------------------3-------------------|----------------||
--------------2-------------------------|----------------||
--0-----4-------------------------------|----------------||
----------------------------------------|----------------||
----------------------------------------|----------------||
e22d52ca659e9d9d2b0f7ad70e1e5f07