Folclor - Sarba2

O alta sarba cantata de Paul Stanga live
transpunere facuta de mine in G major pt acordeon(pian,keyboard)
nivel intermediar-avansat
acorduriile sunt cuprinse in fisierul guitar pro 5 (gp5)

E ||-------------------------|----------------------|--0-----0-------------|
B ||--------2--0--------3----|----------------------|--2--3-----3--1--0----|
G ||o----0--3-----0----------|--2--0--0--2L-2--0----|----------------------|
D ||o----------------0-------|--4-------------------|----------------------|
A ||-------------------------|----------------------|----------------------|
E ||-------------------------|----------------------|----------------------|


----------------------------------------------------------------------------|
--------0-----------------------------0-----------0-----0-------------------|
--2-----------2-----0-----------------------3-------------------------------|
----------------------------------------------------------------------------|
----------------------------------------------------------------------------|
----------------------------------------------------------------------------|


----------------------|----------------------|-----------0--1--2----|
-----2--0--------3----|----------------------|--3--2--3-------------|
--0--3-----0----------|--2--0--0--2L-2--0----|----------------------|
--------------0-------|--4-------------------|----------------------|
----------------------|----------------------|----------------------|
----------------------|----------------------|----------------------|


--5-----------2-----------5-----------3------------------------------------||
---------------------------------------------------------------------------||
--------------------------------------------------------------------------o||
--------------------------------------------------------------------------o||
---------------------------------------------------------------------------||
---------------------------------------------------------------------------||


--------------------------------------------------0-----------1-------------|
--3-----2-----3L----3-----------------3-------------------------------------|
-----------------------------0----------------------------------------------|
----------------------------------------------------------------------------|
----------------------------------------------------------------------------|
----------------------------------------------------------------------------|


--0L-0-----2--3-------|----------------------|----------------------||
--------3--10----3----|--2L-2--2--0-----0----|-----------0--1--2----||
----------------------|--------------3-------|--------0-------------||
----------------------|----------------------|-----0----------------||
----------------------|----------------------|--2-------------------||
----------------------|----------------------|----------------------||


---------------------|----------------------|----------------------|
-3--1--0-------------|--------------0--1----|--3--1--0-------------|
o---------2-----2----|--0-----0--2----------|-----------2-----2----|
o------------4-------|-----0----------------|--------------4-------|
---------------------|----------------------|----------------------|
---------------------|----------------------|----------------------|


----------------------|----------------------|----------------------|
--------------0--1----|--3--1--0-------------|--------------0--1----|
--0-----0--2----------|-----------2-----2----|--0-----0--2----------|
-----0----------------|--------------4-------|-----0----------------|
----------------------|----------------------|----------------------|
----------------------|----------------------|----------------------|


----------------------|---------------------||
--3--1--0-------------|-----------3--0------||
-----------2-----2----|--0-----0--------0--o||
--------------4-------|-----0--------------o||
----------------------|---------------------||
----------------------|---------------------||


----------------------------------------------------------------------------||
----------------------------------------------------------------------------||
--0-----------------------2-----------0-----------0L----0-------------------||
--------------4-----------------------------4-------------------------------||
----------------------------------------------------------------------------||
----------------------------------------------------------------------------||


-------------------------------------------------0-----------1-------------|
-3-----2-----3L----3-----------------3-------------------------------------|
o---------------------------0----------------------------------------------|
o--------------------------------------------------------------------------|
---------------------------------------------------------------------------|
---------------------------------------------------------------------------|


--------------------------------------------------0-----------1-------------|
--3-----2-----3L----3-----------------3-------------------------------------|
-----------------------------0----------------------------------------------|
----------------------------------------------------------------------------|
----------------------------------------------------------------------------|
----------------------------------------------------------------------------|


--------------------------------------------------0-----------1-------------|
--3-----2-----3L----3-----------------3-------------------------------------|
-----------------------------0----------------------------------------------|
----------------------------------------------------------------------------|
----------------------------------------------------------------------------|
----------------------------------------------------------------------------|


----------------------------------------------------------------------------|
--3-----------------------------------0-----------0L----0-------------------|
--------------------0-----------------------3--------------------0----------|
----------------------------------------------------------------------------|
----------------------------------------------------------------------------|
----------------------------------------------------------------------------|


--------------0-------------|--1-----------0-------------|
--3-------------------------|----------------------------|
-----------0-----------0----|-----------0-----------0----|
----------------------------|----------------------------|
----------------------------|----------------------------|
----------------------------|----------------------------|


--------------------------------------------------0-----------1-------------|
--3-----2-----3L----3-----------------3-------------------------------------|
-----------------------------0----------------------------------------------|
----------------------------------------------------------------------------|
----------------------------------------------------------------------------|
----------------------------------------------------------------------------|


---------------------------------------------------------------------------|||
--3-----------------------------------0-----------0L----0------------------|||
--------------------0-----------------------3--------------------0--------o|||
--------------------------------------------------------------------------o|||
---------------------------------------------------------------------------|||
---------------------------------------------------------------------------|||


---------------------|----------------------|----------------------|
-0--0-----3L-3-------|--0--0-----3L-3-------|--0--0-----3L-3-------|
o--------------------|----------------------|----------------------|
o------0--------0----|--------0--------0----|--------0--------0----|
---------------------|----------------------|----------------------|
---------------------|----------------------|----------------------|


----------------------------------------------------------------------------|
--1-----3-----1L----1-----------------------1-----0L----0-------------------|
--------------------------------------4-------------------------------------|
----------------------------------------------------------------------------|
----------------------------------------------------------------------------|
----------------------------------------------------------------------------|


----------------------|-----------0----------|
-----------1L-1-------|-----0--1--2--3--1----|
--2--2----------------|--2-------------------|
--------0--------0----|----------------------|
----------------------|----------------------|
----------------------|----------------------|


----------------------------------------------------------------------------|
--0-----1-----0L----0--------0----------------------------------------------|
--------------------------------------2-----------------------2-------------|
--------------------------------------------------4-------------------------|
----------------------------------------------------------------------------|
----------------------------------------------------------------------------|


-----------0---------||
--------0--2--3------||
--0--3--------------o||
-----------------0--o||
---------------------||
---------------------||


----------------------------------------------------------------------------||
-----------------------------------------------------------------0----------||
--0-----------0L----0-----------------1--------2--------3-------------------||
--------4-------------------------------------------------------------------||
----------------------------------------------------------------------------||
----------------------------------------------------------------------------||


-------------------------------------------------0-------------------------|
-0-----------0L----0-----------------0-----------1-----------0-------------|
o------3-------------------------------------------------------------------|
o--------------------------------------------------------------------------|
---------------------------------------------------------------------------|
---------------------------------------------------------------------------|


----------------------------------------------------------------------------|
--------------0-------------------------------------------------------------|
--2-----------------------0-----------2-----1-----2L----2--------0----------|
----------------------------------------------------------------------------|
----------------------------------------------------------------------------|
----------------------------------------------------------------------------|


----------------------|--------0-------------|
--0-------------------|-----------0----------|
-----2--0-------------|-----0--------0-------|
-----------4--1--4----|--2--------------2----|
----------------------|----------------------|
----------------------|----------------------|


--------------------------------------------------0-------------------------|
--0-----------0L----0-----------------0-----------1-----------0-------------|
--------3-------------------------------------------------------------------|
----------------------------------------------------------------------------|
----------------------------------------------------------------------------|
----------------------------------------------------------------------------|


----------------------------------------------------------------------------|
--------------0-------------------------------------------------------------|
--2-----------------------0-----------2-----1-----2L----2--------0----------|
----------------------------------------------------------------------------|
----------------------------------------------------------------------------|
----------------------------------------------------------------------------|


----------------------|---------------------||
--0-------------------|-----------------0---||
-----2--0-------------|--------0--2--3-----o||
-----------4--1--4----|--2--4--------------o||
----------------------|---------------------||
----------------------|---------------------||


----------------------------------------------------------------------------|
----------------------------------------------------------------------------|
----------------------------------------------------------------------------|
--2-----------1-----------4-----------2-----1-----2L----2-------------------|
----------------------------------------------------------------------------|
----------------------------------------------------------------------------|