Gândul Mâţei - My christmas day (intro)

E||----------------------|----------------------|-------------0--------|
B||----------------------|---------0^1----------|----------3-----3-----|
G||----------------------|-------2------2-------|--------0---------0---|
D||------3-------3-------|--0^2------------2----|-----2----------------|
A||--0-2---2-0-2---2-0---|----------------------|--3-------------------|
E||----------------------|----------------------|----------------------|


E||-----2--2-------------|-----------0-----------|----------------------|
B||-----3-----3----------|-----------0-----------|----------------------|
G||-----2--------2-------|-----------1-----------|----------------------|
D||-----2-----------2----|--------2--------------|----------------------|
A||--2-------------------|-----2--------3--2--0--|----------------------|
E||----------------------|--0--------------------|----------------------|
6Ld5REUUAAAAAA1PBEDya2BDGnf5rYKeKnmYm4Cz
e95c2f0c48aee0fa8afdc267aec259d5