Gândul Mâţei - Requiem

  • (2 voturi)
  • Contribuție:  frodob
  • Ultima actualizare: 13.04.2011
Intro:
    
    Em                    F#m7
1-|-0-------0-2p0-----0-|------------------------|
2-|---0-----------0-----|--2-----2--5----4-------|
3-|-----0-----------0---|----2--------2----2-----|
4-|---------------------|------2-----------------|	2x
5-|---------------------|--4--------2------------|
6-|-0---------0---------|------------------------|

1 strofa:

    Em			  F#m7
1-|-0-------0-2p0-----0-|------------------------|
2-|---0-----------0-----|--2-----2--5----4-------|
3-|-----0-----------0---|----2--------2----2-----|
4-|---------------------|------2-----------------|	2x
5-|---------------------|--4--------2------------|
6-|-0---------0---------|------------------------|
	Pe asfalt,in ceata noptii
	Fara stire a cazut un om.

    Em			   Am
1-|-0-------------------|----------0-5-----------|
2-|-------0-1p0-----0---|--0h1---------8-7-5-----|
3-|-----0-------0--0-0--|------2------5-5-5-5----|
4-|---2-----------2-----|--------2---------------|
5-|---------2-----------|--0---------5-----------|
6-|-0-------------------|------------------------|
	Un strain flamand,sub cerul

    C			  H7
1-|---------------0---0-|------------------2-----|
2-|-1h3p1-----0h1---1---|----------------4-------|
3-|-------0-------------|--------2-----2---------|
4-|---------2-----------|------4-----------------|
5-|-3---------3---------|----2-------2-----------|
6-|---------------------|--2---------------------|
	Inghetat si trist.

2 strofa:

    Em			  F#m7
1-|-0-------0-2p0-----0-|------------------------|
2-|---0-----------0-----|--2-----2--5----4-------|
3-|-----0-----------0---|----2--------2----2-----|
4-|---------------------|------2-----------------|	2x
5-|---------------------|--4--------2------------|
6-|-0---------0---------|------------------------|
	Impacat cu legea mortii
	Pare parca adancit in somn

    Em			   Am
1-|-0-------------------|----------0-5-----------|
2-|-------0-1p0-----0---|--0h1---------8-7-5-----|
3-|-----0-------0--0-0--|------2------5-5-5-5----|
4-|---2-----------2-----|--------2---------------|
5-|---------2-----------|--0---------5-----------|
6-|-0-------------------|------------------------|
	Frunzele ii cad pe fata

    C			  H7
1-|---------------0---0-|------------------2-----|
2-|-1h3p1-----0h1---1---|----------------4-------|
3-|-------0-------------|--------2-----2---------|
4-|---------2-----------|------4-----------------|
5-|-3---------3---------|----2-------2-----------|
6-|---------------------|--2---------------------|
	Blanda de Crist,de Crist.

La Refren trec la bataie deci:
	Em
Refren:	Stai!
	     F#m7   H7
	Nu ceda!
	C
	Stai!
	      Am      H7
	Nu pleca,nu ceda!
	     Em	      F#m7  H7
	Nu rata sansa ta!
	C
	Stai! 
	      Am      H7
	Nu pleca,nu ceda!



3 strofa:

    Em			  F#m7
1-|-0-------0-2p0-----0-|------------------------|
2-|---0-----------0-----|--2-----2--5----4-------|
3-|-----0-----------0---|----2--------2----2-----|
4-|---------------------|------2-----------------|	2x
5-|---------------------|--4--------2------------|
6-|-0---------0---------|------------------------|
	Unul el cunoaste poate
	Nedreptatea care l-a rapus

    Em			   Am
1-|-0-------------------|----------0-5-----------|
2-|-------0-1p0-----0---|--0h1---------8-7-5-----|
3-|-----0-------0--0-0--|------2------5-5-5-5----|
4-|---2-----------2-----|--------2---------------|
5-|---------2-----------|--0---------5-----------|
6-|-0-------------------|------------------------|
	Buzele-i soptesc silabe

    C			  H7
1-|---------------0---0-|------------------2-----|
2-|-1h3p1-----0h1---1---|----------------4-------|
3-|-------0-------------|--------2-----2---------|
4-|---------2-----------|------4-----------------|
5-|-3---------3---------|----2-------2-----------|
6-|---------------------|--2---------------------|
	Fara de sens,non-sens.

	Em
Refren:	Stai!
	     F#m7   H7
	Nu ceda!
	C
	Stai!
	      Am      H7
	Nu pleca,nu ceda!
	     Em	      F#m7  H7
	Nu rata sansa ta!
	C
	Stai! 
	      Am      H7
	Nu pleca,nu ceda!


Em
Cine esti?
 F#m7	  H7
Hai,spune numele tau.
C			Am		   H7
Venit aici de unde si carui te-nchini Dumnezeu?
Em
Iar daca nu stii prea bine
F#m7	  H7
Sau taina ta e prea mare,
C
Eu nu ma supar.
	Am
Pentru ca taci,
	H7
Pentru ce faci
Iti dau iertare.

4 strofa:

    Em			  F#m7
1-|-0-------0-2p0-----0-|------------------------|
2-|---0-----------0-----|--2-----2--5----4-------|
3-|-----0-----------0---|----2--------2----2-----|
4-|---------------------|------2-----------------|	2x
5-|---------------------|--4--------2------------|
6-|-0---------0---------|------------------------|
	Un fior ascuns ma trece
	Cand lumina stelelor din cer

    Em			   Am
1-|-0-------------------|----------0-5-----------|
2-|-------0-1p0-----0---|--0h1---------8-7-5-----|
3-|-----0-------0--0-0--|------2------5-5-5-5----|
4-|---2-----------2-----|--------2---------------|
5-|---------2-----------|--0---------5-----------|
6-|-0-------------------|------------------------|
	M-a orbit nespus

    C			  H7
1-|---------------0---0-|------------------2-----|
2-|-1h3p1-----0h1---1---|----------------4-------|
3-|-------0-------------|--------2-----2---------|
4-|---------2-----------|------4-----------------|
5-|-3---------3---------|----2-------2-----------|
6-|---------------------|--2---------------------|
	Caci omul de pe asfalt sunt eu.

Outro:
    Em(VII)                   Hm(VII)
1-|-7-----7-----7-----7-----|-7-----7-----7-----7-----|
2-|---8-----8-----8-----8---|---7-----7-----7-----7---|
3-|-----9-----9-----9-----9-|-----7-----7-----7-----7-|
4-|-------------------------|-------------------------|
5-|-7-----------------------|-------------------------|
6-|-------------------------|-7-----------------------|
    Am(V)	 	      C(III)	  H7				  x4
1-|-5-----5-----7-----5-----|-3-----3-----2-----2-----|
2-|---5-----5-----5-----5---|---5-----5-----4-----4---|
3-|-----5-----5-----5-----5-|-----5-----5-----2-----2-|
4-|-------------------------|-------------------------|
5-|-------------------------|-3-----------2-----------|
6-|-5-----------------------|-------------------------|

La intro si la strofe:
Em   022000
F#m7 x4222x
H7   x2225x
Am   x02210 (si apoi x55585)
C    x32010

La refrenuri:
Em   022000
F#m7 242222
H7   x24242
C    x32010
Am   x02210

La outro:
Em(VII)  x79987
Hm(VII)  799777
Am(V)    577555
C(III)   x35553
H7       x24242
  • frodob
    9 aprilie 2011 18:10
    Iată cum eu am cîntat-o: http://www.youtube.com/watch?v=wX0CaB9RcLY
    am transpus-o timp de trei zile, si sa primit cum trebuie :)
6Ld5REUUAAAAAA1PBEDya2BDGnf5rYKeKnmYm4Cz
18f7407bb52c317e70e687156c65d579