Gândul Mâţei - Și-așa-mi vine

  • (1 voturi)
  • Contribuție:  frodob
INTRO: Am

1-|--------0-------1--|-------0--------0--|
2-|----1---1---1---1--|---1---1----1---1--|
3-|----2-------2------|---2--------2------|
4-|------2-------2----|-----2--------2----|
5-|--0-------0--------|-0--------0--------|
6-|-------------------|-------------------|

I și a VII strofă se cîntă cu ritmul de la INTRO:
Primul vers:
     Am	      E7	Am	G
1-|--------0-------0--|-------0--------3--|
2-|----1---1---0---0--|---1---1----3---3--|
3-|----2-------1------|---2--------0------|
4-|------2------------|-----2-------------|
5-|--0-----------2----|-0------------2----|
6-|----------0--------|----------3--------|
Al doilea vers:
     C	     G
1-|--------0-------3--|
2-|----1---1---3---3--|
3-|----0-------0------|
4-|------2------------|
5-|--3-----------2----|
6-|----------3--------|
Al treilea vers:
     Am	     Dm
1-|--------0---1---1--|
2-|----1---1---3---3--|
3-|----2---------2----|
4-|------2---0--------|
5-|--0----------------|
6-|-------------------|
Al patrulea vers
     Am	     E7         Am
1-|--------0-------0--|-------0--------0--|
2-|----1---1---0---0--|---1---1----1---1--|
3-|----2-------1------|---2--------2------|
4-|------2------------|-----2--------2----|
5-|--0-----------2----|-0--------0--------|
6-|----------0--------|-------------------|

I.   Și-așa-mi vine cîteodată, dorule		Am E7 Am G
     Și-așa-mi vine cîteodată			C G
     Să dau cu cuțîtu-n chitră			Am Dm
     Să dau cu cuțîtu-n chiatră, dorule		Am E7 Am

II.  Din piatră să iasă foc, măi dorule		Am E7 Am G
     Din piatră să iasă foc			C G
     Dacă-n viață n-am noroc			Am Dm
     Dacă-n viață n-am noroc, măi dorule		Am E7 Am 

III. Cînd s-o-mpărțît norocul, măi dorule	Am E7 Am G
     Cînd s-o-mpărțît norocul			C G
     Fost-am dus eu la lucru			Am Dm
     Fost-am dus eu la lucru, măi dorule	Am E7 Am

IV.  Și la toți le-o dat cu carul, măi dorule  	Am E7 Am G
     Și la toți le-o dat cu carul		C G
     Numai mie cu paharul			Am Dm
     Numai mie cu paharul, dorule		Am E7 Am

V.   Nici acela nu fu plin, măi dorule		Am E7 Am
     Nici acela nu fu plin			C G
     Jumătate-o fo venin			Am Dm
     Jumătate-o fo venin, măi dorule		Am E7 Am

VI.  Nici acela nu fu ras, măi dorule		Am E7 Am G
     Nici acela nu fu ras			C G
     Jumătate-o fo necaz			Am Dm
     Jumătate-o fo necaz, măi dorule		Am E7 Am

VII. Și-așa-mi vine cîte-un gînd, măi dorule	Am E7 Am G
     Și-așa-mi vine cîte-un gînd 		C G
     Să plec prin păduri cîntînd		Am Dm
     Să plec prin păduri cîntînd, măi dorule.	Am E7 Am

OUTRO: 
Am E7 Am G
C G
Am Dm
Am E7 Am
  • frodob
    9 aprilie 2011 18:12
    Iată și coverul pe youtube:
    http://www.youtube.com/watch?v=3I_2dm1v5iM
6Ld5REUUAAAAAA1PBEDya2BDGnf5rYKeKnmYm4Cz
11f0f6f8485189d3232ca1ac5ec805f6