Gică Petrescu - Du-ma acasa mai tramvai (solo)

  • (1 voturi)
  • Contribuție:  Mit
E -------------------------------------------------------------------------------------
A -10-10-----10-10----8-8----------------------10-10-------10-10----88-----------------
D -------9-9-------9------10-9--7-5-7-9---------------9-9--------9-------10-9-7-5-7-9--
G -------------------------------------------------------------------------------------
B -------------------------------------------------------------------------------------
E -------------------------------------------------------------------------------------



E -------------------------------------------------
A ---------------------8---------------------------
D -7-7--9-10-9---7-5-7--------7-7--9-10-9-10-9-7---
G -------------------------------------------------
B -------------------------------------------------
E -------------------------------------------------
6Ld5REUUAAAAAA1PBEDya2BDGnf5rYKeKnmYm4Cz
6f1ce50cd9ef248d356b0830eb764f1c