Gicu Petrache - Daca mor, tu cui ramai?

  • Contribuție:  strabon
  • Ultima actualizare: 28.11.2016
INTRO:
retornela
e|-------3-3-3-------------------|------4-3---------------|
b|---------------6--4--3-4/6-----|---6-----6-4--3----3-4--|
g|---5---------------------------|-----------------5------|
d|-------------------------------|------------------------|
a|-------------------------------|------------------------|
e|-------------------------------|------------------------|
      
e|----------------------------|---3h4p3-1h3p1----------------|      
b|------4-4-4--3-----------3--|--------------4h6p4-3h4p3-----|
g|---5-------------5--4-5-----|--------------------------5---|
d|----------------------------|------------------------------|
a|----------------------------|------------------------------|
e|----------------------------|------------------------------|


Cm           Fm
Banii n-au valoare
G       Bdim       Cm
Nici aurul din lume
Tu esti pentru mine
Cea mai de pret iubire
x2
masura IVa
refren:
           G-Cm            G-Cm
Si daca mor    tu cui ramai
Cm           Fm
Cui ai sa ramai
Fm
Cine te-o mai saruta
Fm   F#dim      G
Cin' te-o imbratisa

retornela

Esti iubirea mea
Esti prima mea iubire
Te rog nu pleca
Ramai, ramai cu mine


masura IVa

refren

retornela

Stau la bar de noapte
Si tot chefuiesc
Caci tu esti departe
Nu pot sa-ti vorbesc

masura IVa

refren

retornela

Vino langa mine
Vino si nu pleca, mai
Caci tu pentru mine
Esti toata viata mea

refren
6Ld5REUUAAAAAA1PBEDya2BDGnf5rYKeKnmYm4Cz
7d02d650645088e66f4c5c9b76938173