Gil Ioniță - Să ne iubim

  • (3 voturi)
  • Contribuție:  Silviu
Este un cântec absolut superb. Cred că l-am nimerit pe tot şi am zis să fiu darnic, 
după ce am învăţat atâtea cântece de pe-aici (deşi m-am chinut ceva să-mi iasă bine). 

Arată mai dubios, însă dacă ascultaţi melodia atent, veţi descoperi cum cad exact acordurile 
(nu pot să redau asta cu exactitate pe internet). Modelul de arpegiere este cel folosit în 
intro-ul piesei (aproximativ, mai adaugă unele chestii Gil Ioniţă). 

Intro *2

 e|----7--7-----3--3-----2--2----0--0-----------------------------|
 B|---0--0-----0--0-----0--0----0--0------------------------------|
 G|--0--0-----0--0-----0--0----0--0-------------------------------|
 D|---------------------------------------------------------------|
 A|---------------------------------------------------------------|
 E|0--------0--------0--------0-----------------------------------|

Fig 1. (apoi se trece înapoi la Em)
 e|----3----2-----------------------------------------------------|
 B|---0----0------------------------------------------------------|
 G|--0----2-------------------------------------------------------|
 D|---------------------------------------------------------------|
 A|------2--------------------------------------------------------|
 E|0--------------------------------------------------------------|

Fig 2. (imediat după ce se termină la-ul minor anterior)
 e|--7------------------3-------2-----0---0-----------------------|
 B|--8-------------------------------0---0------------------------|
 G|---------------------------------0---0-------------------------|
 D|---------------------------------------------------------------|
 A|---------------------------------------------------------------|
 E|--------------------------------0------------------------------|
            Să         ne       iu-bim

Em                              Am
Dumneavoastră, dragi civili din lume,
B7                     Em   Fig.1
Urmăriţi de moarte unanim
Em                     Am
Vă propun o nouă strategie
Fig.2
Să ne iubim.

Em                       Am
Dragostea e calea contra morţii
B7                     Em   Fig.1
Dragostea e un atac sublim
Em                    Am
Vă propun o tactică urgentă
Fig.2       D
Să ne iubim.

Refren:
D       G D     Em    B7 
Să ne iubim, să ne iubim
C       G             D
Să terminăm al morţii haos
        G D     Em    B7
Să ne iubim, să ne iubim
C       G           D
Îndrăgostiţi pe loc repaos.

Faceţi tunul cîine de ogradă
Faceţi tancul suvenir intim
Vă propun un ordin nou de luptă
Să ne iubïm.

La congresul mondial al firii
I propose for you a normal dream
Vă propun votaţi această şansă
Să ne iubim.

Refren *3, apoi se mai cântă o dată "Să ne iubim" şi se face o trecere de la D la G.
6Ld5REUUAAAAAA1PBEDya2BDGnf5rYKeKnmYm4Cz
6faffe613661c7ad52e3a1465bfa27dd