Grasu' XXL - Da-te mai asa

  • Contribuție:  Keops
  • Ultima actualizare: 12.01.2011
Se repeta cam pe tot parcursul melodiei.
Chitara acordata cu un ton mai jos(D G C F A D)



E||-------------------------|-------------------------|
B||-------------------------|-------------------------|
G||-----0/4--0--0/4/0-------|-----0/4--0--0/4/0-------|
D||--2----------------0--2--|--2----------------0--2--|
A||-------------------------|-------------------------|
E||-------------------------|-------------------------|


E||-------------------------|-------------------------|
B||-------------------------|-------------------------|
G||-----0/4--0--0/4/0-------|-----0/4--0--0/4/0-------|
D||--2----------------0--2--|--2----------------0--2--|
A||-------------------------|-------------------------|
E||-------------------------|-------------------------|