Grasu' XXL - Elegant

  • (2 voturi)
  • Contribuție:  Kosmin
  • Ultima actualizare: 08.02.2011
Capodastru pe tasta 5 sau barre pe tasta 5:

Practic canta 2 secvente - cand incep versurile nu se mai canta notele solo de dupa acorduri.


E|--7--7----5------------------
B|--5--5----5------------------
G|--5--5----5-------4-5-4h5p4--    x2
D|--5--5----7-----7-----------7
A|--x--x----x------------------
E|--x--x----x------------------

E|--8--8----7------------------
B|--6--6----6------------------
G|--7--7----7-------4-7-4h5p4-- 
D|--5--5----5-----7-----------5
A|--x--x----x------------------
E|--x--x----x------------------

E|--8--8----7-----7-7-10-8-----
B|--6--6----6------------------
G|--7--7----7------------------ 
D|--5--5----5------------------
A|--x--x----x------------------
E|--x--x----x------------------
6Ld5REUUAAAAAA1PBEDya2BDGnf5rYKeKnmYm4Cz
ad2ba10961fbea64b5db5bded24666f4