Guess Who - Atata face

  • Contribuție:  Serjioo
  • Ultima actualizare: 29.04.2018
Intro:

E|------------------------------
B|---------------------------9--
G|--11-13-9-11-8-9---8h9p8h9----
D|------------------------------
A|------------------------------
E|------------------------------

E|-----11-9-----------
B|--9-----------------
G|-----------13-12-11-
D|--------------------
A|--------------------
E|--------------------

E|-------------------------
B|-------------------------
G|--11-12-13-8-9-11-6-8-9--
D|-------------------------
A|-------------------------
E|-------------------------

E|--11-9--12-
B|-----------
G|-----------
D|-----------
A|-----------
E|-----------

Ritm: C# F#m

Refren (x2)
E|--11-9--11-9--11----------------------------------------------------------
B|--------------------9-----12-10-9--10-9-----9--------12-10-9--10-9--------
G|-----------------------11----------------------11-------------------11-11-
D|--------------------------------------------------------------------------
A|--------------------------------------------------------------------------
E|--------------------------------------------------------------------------
 [---------(2x)-----------]
6Ld5REUUAAAAAA1PBEDya2BDGnf5rYKeKnmYm4Cz
ee84d09de9bf45a8caaef16b3d69582f