Holograf - Atat de multa bucurie

  • (1 voturi)
  • Contribuție:  vladu
E------------------------------------------
B------------------------------------------
G--------3--------3---------3--------3-----
D------3--------3---3-----3--------3---3---
A---1------1-0---------1------1-0----------
E------------------------------------------
                                     E-atat de..

E--------------------------------------------------
B--------------------------------------------------
G--------3--------3--------------3-----------3-----
D------3--------3---3----------3-----------3---3---
A---1------1-0-------------------------------------
E---------------------------3---------3-1----------
    multa bucurie pe drumul care v-om porni/ E-atat de..

E--------------------------------------------------
B--------------------------------------------------
G---------8----------7----------8---------10-------
D------5----------5-----5----5---------7-----7-----
A---6--------6-5----------6-------6-8--------------
E--------------------------------------------------
   bine sa ai vise care se vor indeplini


G------------------------------------------------- : "se poate improviza o bataie...in original
D---------8---------8-----------------5--------3--    sunt niste power-chorduri"
A---------8---------8-----------------5--------3--
E---------6---------5-----------------3--------1--

E-atat de multa fericire, in noaptea care te visez

G---------8-------------8----------8--------------10------ |-------3-------3---
D---------8-------------8----------8--------------10------ |-----3-------3---3- X2
A---------6-------------5----------6--------------8------- |---1-----1-0-------
E--------------------------------------------------------- |-------------------

Pentru ca vreau sa fii aici, si-n orice zi sa-ti spun ca te iubesc

E--1------------------3-----------6---1-1-1-------------------3--------------------
B--1------------------4-----------6---1-1-1-------------------4-----3-3-5~-3-3---3-
G--2------------------3-----------7---2-2-2-------------------3-----3-3-5~-3-3---3-
D--3------------------5-----------8---3-3-3-------------------5---5------------5---
A--3------------------------------8---3-3-3-----------------------5------------5---
E---------------------------------------------------------------------------
   J                  J               J S J                       FILL:
      Am ales o noua cale pentru noi,      Calea sufletului meu.
      Orice ar fi noi vom ramane amandoi,
E---------4--4--4--4--4--4--4--4---1----------------------------
B---------4--4--4--4--4--4--4--4---1------------------------------
G---------5--5--5--5--5--5--5--5---2---------------------------- 
D---------6--6--6--6--6--6--6--6---3------------------------    
A---------6--6--6--6--6--6--6--6---3--------------------------
E--------------------------------------------      
          J  J  J  J  J  J  J  J   J
      Si tu vei fi iubirea mea mereu.

REFREN:...

Ma intreb ce vraja ne-a atins
Si ce destin ne va unii.
Lumea intreaga se deschide pentru noi
Atata vreme cat ne v-om iubi.

REFREN:...

G------------------------------------6----------------10-
D--6-----------------8---------------4----------------6-- "pe partea aceasta se va  
A--6-----------------8---------------4----------------6-- improviza o bataie"
E--4-----------------6-----------------------------------

   Viata asta ne va duce in drumul ei Peste gange vom veni
  
G--8---------------------10------------------------------
D--8---------------------10-----------------3------------
A--6---------------------8------------------3------------
E-------------------------------------------1------------
  
   Orice ar fi noi vom ramane amandoi\ Si in orice clipa eu te voi iubi.

REFREN x4
6Ld5REUUAAAAAA1PBEDya2BDGnf5rYKeKnmYm4Cz
f2e1eb559fd2c91d465315f5484fbf34