Implant Pentru Refuz - Apus

Tabulatura e facuta dupa ureche. Daca depistati greseli, va rog sa ma anuntati.

Intro:

B5 Bb5
B5 Bb5
B5 Bb5
B5 Bb5
G5 E5 D5 E5

E------------------------
B------------------------
G------------------------
D-----4--0------3--0----- x2
A---2------2--1------1---
D------------------------

E--------------------------------------------------
B--------------------------------------------------
G--------------------------------------------------
D-------4--5------0--------0------0------0-------0-
A-----5---------2---2----0------0-------2------2---
D---5---------2--------0------0-------2------2-----


Bm        Bb                         Bm
     M-ai intrebat prea mult sa afli un raspuns,
    Bb      G 
Un soare a apus. 
      Em                        D
Ti-am oferit tot ce-am avut dar ai uitat,
   E                 Bm 
Sa fii asa cum as fi vrut.
  Bb                  Bm 
Fara sa vrei departe m-ai intins,
   Bb            G 
De tine m-am respins.
   Em                    D 
In urma mea ce a ramas nehotarat
   E            Bm
Si nu stiu unde sunt. 
   Bb                           Bm
Am asteptatdar in zadar si zile au trecut,
	      Bb   G
Ma intreb cum ai facut.
      Em                         D 
De ai fi venit cand singura eram as fi putut
    E            Bm
Sa aflu ce-mi doream.
  Bb                       Bm
Acum cand te intalnesc si ochii tai
     Bb            G
Ma imbraca in scantei.
    Em                                D 
As vrea sa schimb ceva dar nu ti-am spus,
     E  
Un soare a apus. 

Bm            D        Bm        D    
Cand te-ntalnesc, in zadar ma feresc,
       Bm                           A         
Si as vrea sa iti spun ca imi esti draga
    G        D    E
Dar nu stiu cum, cum.
      Bm          D           Bm         D 
Oare poti sa-ntelegi, cand ai sa ma dezlegi,
   Bm                        A       G 
Inapoi sa ma aduci, intr-un loc de atunci
 D     E
cand, cand.
 

Aceste acorduri se canta pe toata melodia. In pasajul acela rapid de dupa al doilea refren, se canta

E---------------------	
B---------------------
G---7---8---7---7-8-7-
D---7---8---7---7-8-7-  x4
A---5---6---5---5-6-5-
D---------------------
6Ld5REUUAAAAAA1PBEDya2BDGnf5rYKeKnmYm4Cz
e3e772b86f5d8091a4287ede8a8d35a2