Implant Pentru Refuz - Sidef (acustic)

  • (1 voturi)
  • Contribuție:  th
  • Ultima actualizare: 09.03.2017
Intro

E|------------|-------------------------------------|--------------------
B|------------|------------2------------------------|--------------------
G|--4------4--|-4------4-------4---------2-------2--|--1-------1--1h2----
D|-----4------|----4----------------4--------2------|------2----------2s4-
A|------------|-------------------------------------|---------------------
E|------------|-------------------------------------|---------------------
(totodata vers, merge pana la refren)

Vers 1

In ochii tai
Norii ascund delfini si ponei
In ochii tai
Oamenii rai sunt buni si ei
In mintea ta
Povesti minunate si rauri de flori
In fata ta
Ai arme de plastic sa-nveti sa omori

Refren

Bm                              G
 Dovada minciunii, mizeria din noi
                 E
 Pe frunti incrun-tate
Bm                            A
 Sub masca de vise cadavre d-eroi
     E
 Paca-te uitate
Bm                           G    E
 Esti bine venit, aici ai sa mori
Bm                          A   E
 Traieste in ura si da-mi fi-ori

Vers 2 (la fel ca la intro)

In ochii tai
Lumea se schimba in alte culori
In ochii tai
Lacrimi, deceptii, nu poti sa mai zbori
In mintea ta
Dilema dorintei, pe unde-ai sa megi? 
In fata ta
Domeniul Satanei asteapta s-alegi

Refren

Bm                              G
 Dovada minciunii, mizeria din noi
                 E
 Pe frunti incrun-tate
Bm                            A
 Sub masca de vise cadavre d-eroi
     E
 Paca-te uitate
Bm                           G    E
 Esti bine venit, aici ai sa mori
Bm                          A   E
 Traieste in ura si da-mi fi-ori

Solo

E|-----------|
B|-----------|
G|--------7--|
D|--7--9-----|
A|-----------|
E|-----------|

Refren

Bm                              G
 Dovada minciunii, mizeria din noi
                 E
 Pe frunti incrun-tate
Bm                            A
 Sub masca de vise cadavre d-eroi
     E
 Paca-te uitate
Bm                           G  E
 Esti bine venit, aici ai sa mori
Bm                          A   E
 Traieste in ura si da-mi fi-ori



Bm                           G  E
 Esti bine venit, aici ai sa mori
Bm                          A   E
 Traieste in ura si da-mi fi-ori

Interlude

E|-----------|
B|-----------|
G|--------7--|    (repeta x16 si dupa:)
D|--7--9-----|
A|-----------|
E|-----------|

E|-----------|
B|-----------|
G|-----------|
D|--9--------|
A|-----------|
E|-----------|


Refren

Bm                              G
 Dovada minciunii, mizeria din noi
                 E
 Pe frunti incrun-tate
Bm                            A
 Sub masca de vise cadavre d-eroi
     E
 Paca-te uitate
Bm                           G  E
 Esti bine venit, aici ai sa mori
Bm                          A   E
 Traieste in ura si da-mi fi-ori



Bm                           G  E
 Esti bine venit, aici ai sa mori
Bm                          A   E
 Traieste in ura si da-mi fi-ori



e dupa auz, daca sesizati greseli nu evitati sa corectati in comentarii

Acorduri:  Bm G E A 
b8ad8fb0a81010ead8340b90c81952f2