Iris - Cine ma striga in noapte (solo)

E||-----------------------------------------------------------------||
B||-----------------------------------------------------------------||
G||--12~--14--14^14--------12--14--14^14----------------------------||
D||------------------12~------------------12~--12~----------12--12~-||
A||-------------------------------------------------12--14----------||
E||-----------------------------------------------------------------||


E||-----------------------------------------------------------------||
B||-----------------------------------------------------------------||
G||-------------------------------------------14~--14--16/19--19--16||
D||----------12--12~----------12--12~--14/16------------------------||
A||--12--14-----------12--14----------------------------------------||
E||-----------------------------------------------------------------||


E||-----------------------------------------------------------------||
B||--------------------------BEND, REVINE LA NOTA, ETC.-------------||
G||16--14---/11--11--9^9--7---14^-----------------------14----------||
D||--------------------------------------------------------12-12~---||
A||-----------------------------------------------------------------||
E||-----------------------------------------------------------------||


E||----------------------------14-/-12-12-/-10-10-/-9-9-/-7-/-5-///-||
B||----------------------------12-/-10-10-/-8--8--/-7-7-/-5-/-3-///-||
G||-----------------------------------------------------------------||
D||--------12--14p12------12~---------------------------------------||
A||12--14-------------14--------------------------------------------||
E||-----------------------------------------------------------------||

Solo-ul nu este transpus de mine.L-am descoperit pe Romanian Guitarist 
Community. Respect pentru cel care a reusit sa-l transpuna dar am postat acest solo 
datorita neexistentei lui pe acest site.

Transpunerile de pe acest site reprezintă viziunea personală a utilizatorilor asupra pieselor.
ec146b81286f3d8e3ddcfa743d49ffe5
f7e9d1d2-ebba-44ba-8198-e810bddf71a6