Iris - Corabia cu panze

Tabul pentru varianta de pe Matase Alba. E primul tab, asa ca s-ar putea sa fie putin 
dezordonat, dar sper sa se inteleaga in mare. E un cantec foarte fain.

Puteti canta pe bareuri iar acordurile sunt:

e--------------------
B--------------------
G-7---------7--------
D-7--7---9--7--------
A-5--7---9--5--------
E----5---7-----------

sau asa (aceleasi acorduri, dar fara barre) (cu ciupitura de rigoare)

Intro:
----------------------------------------------------
-----3------------------5------3-------3------------
---2-------2------4---4------2---2---2-------2---4--
-0-------2------4---2------0-------0-------2-----4--
-------0------2--------------------------0-------2--
----------------------------------------------------

Pe versuri e cam asa
-----------------------------------------------------------------------------
-----3------------------5------3-------3------------------5-----3------------
---2-------2------4---4------2---2---2-------2-----4----4-----2---2----------
-0-------2------4---2------0-------0-------2------4---2-----0-------0--------
-------0------2--------------------------0-------2---------------------------
-----------------------------------------------------------------------------


Cand ajunge la strofa a 2-a la ultimul vers baga distors 

Atunci ai s-o ajungi

-------------------------------
-------------------------------
-7---------------------------
-7-----7------9---------------------
-5-----7------9---------------------
-------5------7---------------------

Si apoi pe strofa vine (cu ceva palmute) (Riff)

--------------------------------------------------------------------------------
--------------------------------------------------------------------------------
--------------------------------------------------------------------------------
--------------------------------------------------------------------------------
---5-5--4-4-4---4---2-2-2--2---7-7-7-7-5-4--5-5--4-4-4--4--2-2-2--2--7-7-7-7-5-4--
----------------------------------------------------------------------------------
Iar pe ultimul vers baga din nou
-------------------------------------
-------------------------------------
---7-----------9--9---7--7-----------
---7--7--9-----9--9---7--7-----------
---5--7--9-----7--7---5--5-----------
------5--7---------------------------
Si incepe din nou riff-ul

Apoi cand intra clapele nu inteleg ce face acolo (e un fel de scratch da ma rog) 
si apoi baga asa
------------------------------------------------------------------------
------------------------------------------------------------------------
-6h7-7-6-7~--~6h7-7-6-7~---6h7-7-6-7~---6h7-6---4~---------------------- X4
----------------------------------------------7-------------------------
------------------------------------------------------------------------
------------------------------------------------------------------------

si mai e break-ul care incepe la versul:

 Pasarile   cintatoare
-------------------------
-------------------------
--5--------7-------------
--5--------7-------------
--3--------5-------------
-------------------------
  Se opresc pe catarg
-------------------------
-------------------------
--5------------7-------------
--5------------7-------------
--3------------5-------------
-----------------------------
Si vestesc de stincile din larg
----------------------------------
----------------------------------
--5-------------------------------
--5--------5----------7-----------
--3--------5----------7-----------
-----------3----------5-----------

Solo care o sa-l scot alta data ca n-am timp.

Cam asta ar fi. Enjoy!

Versurile:
Batrinul verde mal
Margine de drum
Saruta apa dulce
Ce-l macina acum

Numai de ai vrea
Gindul rau sa alungi
Corabia cu pinze
Atunci ai s-o ajungi

Lumea-i obosita
Putere nu mai are
Corabia s-o prinda
Sa o arunce-n mare
Incearca sa-ntelegi
Ce altul nu pricepe
Tot ce-i mai frumos
De aici incolo incepe

Corabia cu pinze
Dusa de vint bun
Pe mare pluteste
Si vantul urla-acum
Pasarile cintatoare
Zboara dinspre mal
Si vestesc de stincile din larg


Pasarile cintatoare
Se opresc pe catarg
Si vestesc de stincile din larg

Numai de ai vrea
Gindul rau sa alungi
Corabia cu pinze
Atunci ai s-o ajungi

Lumea-i obosita
Putere nu mai are
Corabia s-o prinda
Sa o arunce-n mare

Incearca sa-ntelegi
Ce altul nu pricepe
Tot ce-i mai frumos
De aici incolo ïncepe

Transpunerile de pe acest site reprezintă viziunea personală a utilizatorilor asupra pieselor.
d1ea21955730959b01f1bd088946c37a
f7e9d1d2-ebba-44ba-8198-e810bddf71a6