Iris - De Vina Esti Tu (solo)

e-------------------------------------------------------------
B---------------------3-5-3--5-7-8-8-5--8-7-8-7-8-7\----------
G--4-6-7-0----2-4-/6------------------------------------------
D-------------------------------------------------------------
A-------------------------------------------------------------
E-------------------------------------------------------------


e-------------------------------------------------------------
B---------------------3-5-3--5-7-8-8-7--11-11-11/---16-16-16\-
G--4-6-7-0----2-4-/6------------------------------------------
D-------------------------------------------------------------
A-------------------------------------------------------------
E-------------------------------------------------------------  


Eu asa il vad..ascultati piesa pentru timing :)

Transpunerile de pe acest site reprezintă viziunea personală a utilizatorilor asupra pieselor.
0aeee7b205c3f47d407fd09c0dc49458
f7e9d1d2-ebba-44ba-8198-e810bddf71a6