Iris - La popas

INTRO

E------------------------------------------|
B------------------------------------------|
G------------------------------------------|     X4
D---2-5---2-5--5----2-5--5---2-5--7--------|
A---0-3---0-3--3----0-3--3---0-3--5--------|
E------------------------------------------|

VERSURI

E------------------------------------------|
B------------------------------------------|
G------------------------------------------|
D---2----2-2-2---5-7-5-7-------------------|
A---0----0-0-0---3-5-3-5-------------------|
E------------------------------------------|

SA POT ZBURA SPRE ZARE
E------------------------------------------|
B------------------------------------------|
G------------------------------------------|
D---2----2-2-2---5-7-5-7---------5-7-5-7---|
A---0----0-0-0---3-5-3-5----3----3-5-3-5---|
E---------------------------1--------------|

VERSURI

E------------------------------------------|
B------------------------------------------|
G------------------------------------------|
D---2----2-2-2---5-7-5-7-------------------|
A---0----0-0-0---3-5-3-5-------------------|
E------------------------------------------|

ASTEPT UN LUNG POPAS     

E------------------------------------------|
B------------------------------------------|
G------------------------------------------|
D---5-7-5-7--------------------------------|
A---3-5-3-5--------------------------------|
E------------------------------------------|

REFREN

E------------------------------------------|
B------------------------------------------|
G------------------------------------------|
D---2-------7---5/7-7--5/7-7---2-----------|
A---0---5---5---3/5-5--3/5-5---0-----------|
E-------3----------------------------------|


SOLO-UL NU-L STIU
E PRIMUL MEU TAB DECI DACA AM GRESIT CEVA SA-MI SPUNETI

Transpunerile de pe acest site reprezintă viziunea personală a utilizatorilor asupra pieselor.
2a055c595d534868a8c97a75b1313195
f7e9d1d2-ebba-44ba-8198-e810bddf71a6