Iris - Lumea toata e a mea

  • Contribuție:  anonime
intro
E------------------------------------------------------
B------------------------------------------------------
G----------x5-7^5----------x5-x7~----------------------
D-x7-x5-x7--------x7-x5-x7-----------------------------
A------------------------------------------------------
E---------------------during this the drums comes in---

E------------------------------------------------------
B------------------------------------------------------
G------------------------------------------------------
D-9~--777-9----7-9-7-5-7-5-4---------------------------
A-7~--555-7----5-7-5-3-5-3-2---------------------------
E-0~---------------------------------------------------

E-----------------------------------------------------------
B-----------------------------------------------------------
G-----------------------------------------------------------
D----------------------------------------------------5-7----
A----------------------------------------------------3-5----
E-xxxxxxxxxxxxxxxxxxxxxxxxxxxxxxxxxxxxxxxxxxxxxxxx----------

 Ziua si noaptea aleraga ca viata si orele trec mai usor
 Luna se stinge chemind dimineata si soarele apare in zori

E-----------------------------------------------------------
B-----------------------------------------------------------
G-----------------------------------------------------------
D-----------------------------------------------------------
A-xxxxxxxxxxxxxxxxxxxxxxxxxxxxxxxxxxxxxxxxxxxxxxxxxxxxxx-3-5-
E-------------------------------------------------------1-3-

 Cerul s-aprinde, un dor ma cuprinde, si lumea e toata a mea
 Focul tristetii indata se stinge, iubirea e-n inima     ta

E------------------------------------------------------
B------------------------------------------------------
G------------------------------------------------------
D------------------------------------------------------
A-3---5-------7-xx-3---5----------7--------------------
E-1---3-------5----1---3----------5--------------------

    O singura data, te rog sa mai stai

E------------------------------------------------------
B------------------------------------------------------
G------------------------------------------------------
D------------------------------------------------------
A-3-----5--------7xxxxxx-3--5-----------2--------------
E-1-----3--------5-------1--3-----------0--------------

    Iar timul te roaga... o clipa sa-mi dai

E----------------------------------\_____end2____/-----
B-----------------------------------\ |end1|    /------
G------------------------------------\\    /   /-------
D-------------------------------------||__|   |--------
A-xxxxxxxxxxxxxxx-5-5---xxxxxxxxxxxxxx-3-5--2----------
E-----------------3-3------------------1-3--0----------

 Lumea toata, e a mea,  si te rog nu pleca...(end1)
 Lumea toata, e a mea,  si te rog nu pleca...(end2)

E------------------------------------------------------
B------------------------------------------------------
G------------------------------------------------------
D------------------------------------------------------
A--7-------------5---inter-----------------------------
E--5-------------3-------------------------------------