Iris - Stele in par

  • Contribuție:  E
Stele in par(Iris)


Solo

e|------------------------------------------------------------------------------------|
B|------------------------------------------------------------------------------------|
G|------------------------------------------------------------------------------------|
D|------------------7-7---------------------------------------------------------------|
A|---7--8--7--5--7------7-7---7-7-7h8/10-----10x-8x-7x--5-----------------------------|
E|--------------------------------------------------------8-7-5-----------------------|

e|------------------------------------------------------------------------------------------|
B|------------------------------------------------------------------------------------------|
G|------------------------------------------------------------------------------------------|
D|-----7-9-7-9--------------------------------------7-7-------9-9-------9/10--10/12---------|
A|--------------7---7-7-7h8/10----8x-7x--5--7/8-7--------7-7-------7-7----------------------|
E|------------------------------------------------------------------------------------------|



e|------------------------------------------------------------------------------------------|
B|------------------------------------------------------------------------------------------|
G|------------------------------------------------------------------------------------------|
D|--9-9-9-9h10h12---10x-9x--7---------------------------------------------------------------|
A-----------------------------10-9-7--------------------------------------------------------|
E|------------------------------------------------------------------------------------------|



e|------------------------------------------------------------------------------------------|
B|------------------------------------------------------------------------------------------|
G|--------------------------------------------------------12-12-12----10--9--7--9-9h10--9---|
D|----7-7-----9-9-------9/10--10/12------9-9-9-9h10h12--------------------------------------|
A|--------7-7------7-7----------------------------------------------------------------------|
E|------------------------------------------------------------------------------------------|




x-mute
h-hammer-on



O varianta care poate multumi cat de cat:)
6Ld5REUUAAAAAA1PBEDya2BDGnf5rYKeKnmYm4Cz
22f27ac154f445efacfffdda5fc41d2e