Iris - Trenul fara nas

1) pm-palm mute;
2) h-hammer on;
3) p-pull off;
4) notele insotite de litera , se executa
lovind CU PANA corzile chitarei de jos in sus;
5) "" si "/"=slide(glissando).

Intro 

e-------------------------------------------------------- -----
B-------------------------------------------------------- -----
G-------------------------------------------------7--9--- -----
D--------2---0h2p0---0h2p0--0h2p0-----7--5--------7--9--- -2---
A--------2----------------------------------7--5--5--7--- -2---
E---12--0----------------------------------------------- -0---

Formula I
e--------------------------------------------------------------------------
B--------------------------------------------------------------------------
G--9----------------------9-----------------------9----------------------9-
D--9----------------------9-----------------------9----------------------9-
A--7----------------------7-----------------------7----------------------7-
E-----0pm--0pm--0pm--0pm------0pm--0pm--0pm--0pm-----0pm--0pm--0pm--0pm----

e------------------------------------
B------------------------------------
G------------------------------------
D--7--5------------------------------
A--------7--6--5---------------------
E-----------------7--6---------------

Formula a II-a
e--------------------------------------------------
B--------------------------------------------------
G--------------------------------------------------
D--7/--9-9pm-9pm-9pm-9pm----7/--9--9pm-9pm-9pm-9pm-
A--5/--7-7pm-7pm-7pm-7pm----5/--7--7pm-7pm-7pm-7pm-
E--------------------------------------------------


e------------------------------------------
B------------------------------------------
G------------------------------------------
D--7--7-7--6-6--7/--9--9pm--9pm--9pm--9pm-
A--5--5-5--4-4--5/--7--7pm--7pm--7pm--7pm-
E------------------------------------------

VERSURI
e------------------------------------ ----------------------------------------
B------------------------------------ ----------------------------------------
G------------------------------------ ----------------------------------------
D------------------------------------ --7j--7j--------------------------------
A--7pm--7pm--7pm--7pm--7pm--7pm--7pm- --7j--7j--7pm-7pm-7pm-7pm-7pm-----------
E--5pm--5pm--5pm--5pm--5pm--5pm--5pm- --5j--5j--5pm-5pm-5pm-5pm-5pm-----------

e--------------------------------------------------
B--------------------------------------------------
G--------------------------------------------------
D-7-7/--9-9pm-9pm-9pm-9pm----7/--9--9pm-9pm-9pm-9pm-
A-5-5/--7-7pm-7pm-7pm-7pm----5/--7--7pm-7pm-7pm-7pm-
E--------------------------------------------------

e------------------------------------------
B------------------------------------------
G------------------------------------------
D--7--6--7/--9--9pm--9pm--9pm--9pm--------
A--5--4--5/--7--7pm--7pm--7pm--7pm--------
E------------------------------------------

REFREN
e-------------------------------------------------------
B-------------------------------------------------------
G---7---------------------------------------------------
D---7--7--7/--9pm--9pm--9pm--9pm---7--9--7-------------
A---5--7--5/--7pm--7pm--7pm--7pm---5--7--5-------------
E------5------------------------------------------------
Riff-urile pentru refren se repeta de 4 ori

Dupa versuri se repeta Formula a II-a
Formula a III-a(inainte de solo)
e------------------------------------
B------------------------------------
G------------------------------------
D--7--5--7--4--5--2--4--0------------
A------------------------------------
E------------------------------------


e------------------------------------
B------------------------------------
G-----------------------2------------
D-----------------------2------------
A--7--5--7--4--5--2--4--0------------
E------------------------------------

Riff-urile pentru solo

e-----------------------------------------------------
B-----------------------------------------------------
G-----------------------------------------------------
D--4j----------------------4j----------------------4--
A--4j--4pm--4pm--4pm--4pm--4j----------------------4--
E--2j--2pm--2pm--2pm--2pm--2j----5--0--2--5--2--0--2--

Formula a-IV a (finalul)

e------------------- -----------------
B------------------- -----------------
G------------------- -----------------
D------------------- --2--------------
A--7-6-5-4-3-2-1-0-- --2--------------
E------------------- --0--------------