Iris - Ultimul Mic Dejun Al Lui Bon (solo)

  • (2 voturi)
  • Contribuție:  masklin
-----------------------------------------------------------------------------
-----------------------555----------------------565-555----------------------
-----4-5-----4-5---4-5----7-5-4------4-5--4-5----------77--4-5-7-5-455-4555--
-5-7----7-------7-----------------5-7---7----77------------------------------
-----------------------------------------------------------------------------
-----------------------------------------------------------------------------



-------------------------------------------------------------------------------------
------------------------------------------------------------5/8-88-65----------------
---4-5-7-5-455-4-5-4-------4-5-4---4-5-4---4--------4---4-5----------7---4-5-7-5-4---
-7------------------7--5-7-------7-------7--77--5-7---7----------------------------7-
-------------------------------------------------------------------------------------
-------------------------------------------------------------------------------------