Iris - Vis pierdut

Intro:

E||-----------------------|------------0h----2----|--3----L----L---------|
B||-----------------------|-------0---------------|----------------------|
G||-----------------------|--0--------------------|----------------------|
D||------------2h----4----|-----------------------|----------------------|
A||-------2---------------|-----------------------|----------------------|
E||--0--------------------|-----------------------|----------------------|


                     ^                                                    ^   
-------5p--3--2p--0--2----|--L----L----L------------|-------------0-------2--|
---------------------3----|--L----L----L----/3g5----|-----3---------------3--|
---------------------2----|--L----L----L------------|---------------------2--|
---------------------0----|--L----L----L------------|---------------------0--|
--------------------------|-------------------------|------------------------|
--------------------------|-------------------------|------------------------|


--L----L----L----2----|----------------------|----------------------|
--L----L----L---------|--3-------------------|-----------------1----|
--L----L----L---------|-------2--------------|------------2---------|
--L----L----L---------|------------0---------|-------2--------------|
----------------------|-----------------0----|--L-------------------|
----------------------|----------------------|----------------------|


--0---------0----L----|--3----L--------------|--2----L--------------|
-------1----1----L----|------------1---------|------------1---------|
----------------------|-----------------2----|-----------------2----|
----------------------|----------------------|----------------------|
----------------------|----------------------|----------------------|
----------------------|----------------------|----------------------|


                                                ^                  
----------------------|----------------------|--0--------L--------|
----------------------|--0---------0----L----|--0--------L--------|
-----------------0----|-------0--------------|--0--------L--------|
------------2---------|----------------------|--2--------L--------|
-------2--------------|----------------------|--------------------|
--0-------------------|----------------------|--------------------|


--L--------L--------||
--L--------L--------||
--L--------L--------||
--L--------L--------||
--------------------||
--------------------||


Em               D
Când mă uit la mine cel ce-a fost
Em            D
Ani în şir rebelul fără rost
Am     Am7 Am6 Em 
Nu am trăit decât pentru o zi
C        D     Em
Nu m-am mirat a fi

Am pierdut şi nici că am ştiut
Zile-au fost un joc neîntrerupt
Nu am ştiut decât să uit mereu
Că mâine voi fi tot eu

	Refren:	

	C         D               G    G/B      Em
	Tot ce-am vrut a fost ca timpul să mai stea
	C       D            Em
	Nu mai mult ca viaţa mea
	C        D          G    G/B    Em
	Nu îmi pare rău de anii ce-au trecut
	C        D            Em
	Ei mi-au dat ce n-am avut

	
	ultima dată:

	...
	C        D          G    G/B    C
	Nu îmi pare rău de anii ce-au trecut
	C        D            Em
	Toţi plecăm ca un vis pierdut...


Am6: 002212
Am7: 002213
G/B: x20003