Kalypto - Tipa Mica (solo)

E|----------------------------------------------------------------------------------
B|----------------------------------------------------------------------------------
G|-------12-14b16-12----------12-14b16-12-14b16-14-12----------------------12-14-12-
D|-12-14-------------14-12-14-------------------------14-12----------12-14----------
A|----------------------------------------------------------12-14-15----------------
E|----------------------------------------------------------------------------------



E|----------------------------------------------------------------------------------------
B|----------------------------------------------------------------------------------------
G|-14p16r14-14b16r14-12-------------------------------12----12----12----12----14-12-14-12-
D|----------------------14-14-12-14-12-14-12-14-12-14----14----14----14----14-------------
A|----------------------------------------------------------------------------------------
E|----------------------------------------------------------------------------------------



E|----------------------------------
B|-------------------15-------------
G|-14-12-14-12-14b16----16r14-14-12-
D|----------------------------------
A|----------------------------------
E|----------------------------------
6Ld5REUUAAAAAA1PBEDya2BDGnf5rYKeKnmYm4Cz
e973d4866b519184e0396f83f6af9f44