Karma - Am Obosit

  • (2 voturi)
  • Contribuție:  vasib
  • Ultima actualizare: 08.07.2014
Capo I


Intro:
   C      G       Dm      Am
e|---0------3--------1-------0---|
B|----1------0--------3-------1--|
G|-----0------0--------2-------2-|
D|----------------0--------------|
A|-3-----------------------0-----|
E|--------3----------------------|

   C      G       C   E   Am
e|---0------3-----0---0---0-|----|
B|----1------0----1---0---1-|----|
G|-----0------0---0---1---2-|----|
D|--------------------------|----|
A|-3--------------3---2---0-|-0-2|
E|--------3-----------------|----|


Refren:

C     G   Dm          Am   
Am obosit sa te mai astept 
C        Dm   C  E  Am     
O toamna cade peste mine   
C        G    Dm      Am    
Si sa te iert ar fi nedrept 
C           Dm    C    E   Am   
Sunt singur si ma simt mai bine 

C                   G        
Ma plimb pe strazi acoperite 
Dm           Am              
De lacrima copacilor         
F                 C            
Iti simt privirea ta fierbinte 
E                Am            
Cum ma priveste-ntamplator     

Alerg sa-ti prind imbratisarea
La pieptul tau iar sa ma strangi
Dar ratacesc din nou cararea    
Spre ale tale buze dulci        


(Refren)


Si ziua-ncetisor se lasa
Peste padurile de-argint
As vrea sa ma intorc acasa
As vrea sa aflu cine sunt 

Te vei intoarce tot la mine
Si printre frunze vom dansa
Acum te las caci ziua vine 
Dispari si tu zambet de stea
b5c9651a63a88862cd0a27a853f6266c