Karma - Colinda trista

  • (2 voturi)
  • Contribuție:  vasib
  • Ultima actualizare: 08.07.2014
Capo I
Intro: E B7 E B7

Em	           B7
Se-aud colindele incet pe cale 
Em	          B7
Si rar le tulbura vreun ecou, 
Am	           Em	
Cand ademenitor poftesc in vale 
Am	               B7
Sa intre-n casa-n anul cel mai nou. 


Le-asteapta oamenii plini de mirare,
Ca au venit pesemne prea curand,
Ca tot imbatranesc cu disperare
                                    E7
Si ca mai mor si ei din cand in cand.	  


Refren:
Am   Em        D	     G	 
Ascultati, ascultati colinda trista, 
Am   Em        B7           Em	
Ascultati, ascultati colinda mea. 


Ca le e greu sa tot isi poarte crucea
Pe sub ferestre noi de timp sarac,
Ca nu mai stiu pe unde-ar fi rascrucea
De-ntors la Mos Craciunul din alt veac.

Inchina un pahar cu vin de casa.
Ai casei le raspund ca un ecou
Si-adorm tiptil cu coatele pe masa
Visand ca va fi bun anul cel nou.

Isi sterg usor cu mana lor cea stanga
Un fir de lacrima pornit hoinar
Cand zurgalaii suiera-ntr-o dunga
Pe-o fila ultima de calendar.



--------------------------------
Ciupitura e cam asa:


    Em
e|-----0----0-----| <- inelar
B|------0----0--0-| <- mijlociu
G|-------0----0---| <- aratator
D|----------------|
A|----------------|
E|--0-------------| <- degetul mare

    B7                 Am
e|-----2----2-----|----0----0-------|
B|------0----0--0-|-----1----1--1---|
G|-------2----2---|------2----2-----|
D|----------------|-----------------|
A|--2-------------|--0--------------|
E|----------------|-----------------|

    D                  G
e|----2----2------|-----3----3------|
B|-----3----3--2--|------0----0--0--|
G|------2----2----|-------0----0----|
D|--0-------------|-----------------|
A|----------------|-----------------|
E|----------------|--3--------------|
5f670f077e778a49e6238d9362af9841